Kvelertak

Undertro

Kvelertak

tabs

by  LUCICAMARGO

save to print version add songbook text version e-mail correct tuner
chordsukulelecavacokeyboardtabbassdrumsharmonicaflute Guitar Pro
close

there isn't a video lesson for this song

chords

Undertro

	  		
OPENING RIFF 
This is played in different variations throughout the song - palm muted here and there -  
listen to song for variations. 
E|--------------------------------------| 
B|--------------------------------------| 
G|----------7---------------------------| 
D|--------------------------------------| 
A|--7-8-10---10-8-7---------------------| 
E|-------------------0-0-0-0-0-0-0-0-0--| 

'VERSE' 
Cant think what else to call this section but that'll do. Slightly odd timing but just  
listen out for that. 
E|-------------------------------------| 
B|-------------------------------------| 
G|--9-10-12---12-10-9-8-8-8-8-8-8-8-8--| 
D|--9-10-12---12-10-9-8-8-8-8-8-8-8-8--| 
A|--7-8--10---10-8--7-6-6-6-6-6-6-6-6--| 
E|-------------------------------------| 

E|--------------------------------------------------------| 
B|--------------------------------------------------------| 
G|--9-8-8-8-8-8-8-8-8------------------------2-2-2-2------| 
D|--9-8-8-8-8-8-8-8-8--------0---------2-3---2-2-2-2--3/--| 
A|--7-6-6-6-6-6-6-6-6----0-1---0h1p0---------0-0-0-0------| 
E|----6-6-6-6-6-6-6-6-----------------3----1----------1/--| 
PM                                           ....... 


Then there's some seriously mad chords playing here that I honestly cant make out - if  
anyone knows what they are please let me know they've been driving me insane! 


MAIN RIFF 
I'm not 100% on this but its as best I can get it for now. Its repeated loads throughout  
the song so easy to practice along to, I just think it needs a slight tweaking. 
E|------------------------------| 
B|---------------2------2-------| 
G|---------------0------0-------| 
D|--2--2-2-2-2------------------| 
A|--2--2-2-2-2-----2-0----2-0---| 
E|--0--0-0-0-0------------------| 
PM     . . . . 

E|------------------------------| 
B|---------------2-3-3-3-2-0----| 
G|---------------2-2-2-2-2-0----| 
D|--2--2-2-2-2---2-4-4-4-4-0----| 
A|--2--2-2-2-2------------------| 
E|--0--0-0-0-0------------------| 
PM     . . . . 

E|---------------------------------------------| 
B|---------------------------------------------| 
G|---------------------------------------------| 
D|--2--2-2-2-2--5-4-2-5-4-2--5-5---5-5--10-9/--| 
A|--2--2-2-2-2--3-2-0-3-2-0--5-5---5-5--8--7/--| 
E|--0--0-0-0-0---------------3-3-0-2-2---------| 
PM     . . . . 


Apologies that this isn't complete, but hopefully its inspired you to try and figure out  
the rest, and if I do the same I shall update this tab. Thanks guys! 
		  

See also:

tabs M2M - Jennifer tabs Kvelertak - Bruane Brenn tabs M2M - Wanna Be Where You Are tabs Audrey Horne - Show And Tell tabs Kvelertak - Ondskapens Galakse tabs M2M - Don't
e-chords

Other versions:

tabs Kvelertak - Undertro
auto scroll beats size up size down change color hide chords drawings
tab show chords e-chords YouTube Clip e-chords hide all tabs e-chords go to top tab

share