Kurt Hugo Schneider

Just A Dream

Kurt Hugo Schneider

tabs

by  TERCMORAES

save to print version add songbook text version e-mail correct tuner
chordsukulelecavacokeyboardtabbassdrumsharmonicaflute Guitar Pro
close

there isn't a video lesson for this song

chords

Just A Dream

	  		
    Am                            F 
e|-------------0-----------0----------------------------------------| 
B|--------1------1-----0h1---1---------------1------------1---------| 
G|------2----2-----2-2------------------0--------0----0-------0-----| 
D|----2-------------------------------3----3---3----3---3---3-------| 
A|--0-------------------------------3-------------------------------| 
E|--------------------------------1---------------------------------| 
    C                               G          
e|-------------0----------------------------------------------------| 
B|--------1--------1-----1----------------0----3---0------1p0-------| 
G|---------------------------0---0------0----0---0------------0-----| 
D|------2----2---2-----2---2---2------0-----------------0-------0---| 
A|----3-------------------------------------------------------------| 
E|--0-------------------------------3-----------------3-------------| 

h~ hammer on 
p~ pull off 
		  

Full key step upFull key step up
Half key step upHalf key step up
Half key step downHalf key step down
Full key step downFull key step down
hide glossary

See also:

tabs Deep Purple - Sail Away tabs Deep Purple - Pictures of Home tabs Deep Purple - Lazy tabs Deep Purple - Highway Star tabs Deep Purple - Deep Purple - Smoke On The Water tabs Deep Purple - Smoke On The Water (Intro + solo 01)
e-chords

Other versions:

tabs Kurt Hugo Schneider - Just A Dream tabs Fraggle Rock - Just A Dream Away
auto scroll beats size up size down change color hide chords drawings
tab show chords e-chords YouTube Clip e-chords hide all tabs e-chords go to top tab

share