Kula Shaker

Knight On The Town

Kula Shaker

tabs

by  ALYSLIMA

save to print version add songbook text version e-mail correct tuner
chordsukulelecavacokeyboardtabbassdrumsharmonicaflute Guitar Pro
close

there isn't a video lesson for this song

chords

Knight On The Town

	  		
Intro 

(two guitars playing) 

Guitar 1 

e|--------------------------------|--------------------------------| 
B|5---5---3---3---3---2---2---0---|5---5---3---3---3---2---2---0---| ==== 
G|4---4---4---0---0---2---2---0---|4---4---4---0---0---2---2---0---|  x4 
D|--------------------------------|--------------------------------| ==== 
A|--------------------------------|--------------------------------| 
E|--------------------------------|--------------------------------| 
   ^       ^       ^       ^        ^       ^       ^       ^ 

Guitar 2 

(two bars' rest:) 

e|--------------------------------|--------------------------------| 
B|17--17--15--15--15--14--14------|17--17--15--15--15--14--14------| ==== 
G|16--16--16--12--12--14--14------|16--16--16----------14--14------|  x3 
D|--------------------------------|------------17--17--------------| ==== 
A|--------------------------------|--------------------------------| 
E|--------------------------------|--------------------------------| 
   ^       ^       ^       ^        ^       ^       ^       ^ 

Verse 

(one guitar) 

 'She had been...' 
e|--------------------------------|--------------------------------| 
B|--------------------------------|--------------------------------| 
G|--------------------------------|--------------------------------| 
D|--------------------------------|2-------------------------------| 
A|--------------------------------|0-------------------------------| 
E|--------------------------------|--------------------------------| 
   ^       ^       ^       ^        ^       ^       ^       ^ 

e|0---0---------------------------|--------------------------------| 
B|0---0---0-----------------------|--------------------------------| 
G|--------0---2-------2---2-------|--------------------------------| 
D|------------2-------2---2-------|------------2-------2---2-------| 
A|--------------------------------|2---2-------0-------0---0-------| 
E|--------------------------3b4---|0---0---3-----------------3b4---| 
  ^       ^       ^       ^        ^       ^       ^       ^ 

e|--------------------------------|--------------------------------| 
B|--------------------------------|--------------------------------| 
G|----------------------------0---|--------------------------------| 
D|----------------------------0---|2-------------------------------| 
A|2---2---2---2---2---2---2-------|0-------------------------------| 
E|0---0---0---0---0---0---0---3---|--------------------------------| 
  ^       ^       ^       ^        ^       ^       ^       ^ 

e|0---0---------------------------|--------------------------------| 
B|0---0---0-----------------------|--------------------------------| 
G|--------0---2-------2---2-------|--------------------------------| 
D|------------2-------2---2-------|------------2-------2---2-------| 
A|--------------------------------|2---2-------0-------0---0-------| 
E|--------------------------3b4---|0---0---3-----------------3b4---| 
  ^       ^       ^       ^        ^       ^       ^       ^ 
 'Motor car...' 
e|----------------3-------3---0---|--------------------------------| 
B|----------------3-------3---0---|------12----12-----15----15-----| 
G|------------0-0-0-------0---0---|------14b16-14b16--17b19-17b19--| 
D|--------2---0-0-0-------0---0---|--------------------------------| 
A|0-------0-----------------------|--------------------------------| 
E|------------3-3-3-------3-------|0-------------------------------| 
  ^       ^       ^       ^        ^       ^       ^       ^ 

e|------------3-3-3-------3---3-3-|--------3-----------------------| 
B|2-------2---0-0-0-------0---0-0-|--------2-----------------------| 
G|2-------2---0-0-0-------0---0-0-|--------2-----------------------| 
D|2-------2---0-0-0-------0---0-0-|2-------2------- ____t____------| 
A|0-------0-----------------------|0---------------|---------|-----| 
E|------------3-3-3-------3---3-3-|----------------3----3----2-----| 
  ^       ^       ^       ^        ^       ^       ^       ^ 

e|--------------------------------|0---0---0-----------------------| 
B|--------------------------------|0---0---0---2-------------------| 
G|--------------------------------|------------2-------------------| 
D|------------2-----------2-------|--------------------------------| 
A|2---2-------0-----------0-------|--------------------------------| 
E|0---0---3-------------------3---|--------------------------------| 
  ^       ^       ^       ^        ^       ^       ^       ^ 

e|0---0---0-----------------------|--------------------------------| 
B|0---0---0---2-------------------|----------------------------3-3-| 
G|------------2-------------------|----------------------------2-2-| 
D|--------------------------------|------------2-----------2---0-0-| 
A|--------------------------------|2---2-------0-----------0-------| 
E|--------------------------------|0---0---3-----------------------| 
  ^       ^       ^       ^        ^       ^       ^       ^ 

e|--------------------------------|--------------------------------| 
B|3-------------------------------|--------------------------------| 
G|2-------------------------------|2-------------------------------| 
D|0-------------------------------|2-------------------------------| 
A|--------------------------------|0-------------------------------| 
E|--------------------------------|--------------------------------| 
  ^       ^       ^       ^        ^       ^       ^       ^ 

e|--------------------------------|--------------------------------| 
B|--------------------------------|----------------------------3-3-| 
G|--------------------------------|----------------------------2-2-| 
D|------------2-----------2-------|------------2-----------2---0-0-| 
A|2---2-------0-----------0-------|2---2-------0-----------0-------| 
E|0---0---3-------------------3b4-|0---0---3-----------------------| 
  ^       ^       ^       ^        ^       ^       ^       ^ 

e|--------------------------------| 
B|3-------------------------------| 
G|2-------------------------------| 
D|0-------------------------------| 
A|--------------------------------| 
E|--------------------------------| 
  ^       ^       ^       ^ 

First time through, play this bit below; second time, go straight to 'Break': 

e|--------------------------------| 
B|--------------------------------| 
G|2-------------------------------| 
D|2-------------------------------| 
A|0-------------------------------| 
E|--------------------------------| 
  ^       ^       ^       ^ 

e|--------------------------------| 
B|--------------------------------| ==== 
G|--------------------------------|  x3 
D|------------2-----------2-------| ==== 
A|2---2-------0-----------0-------| 
E|0---0---3-------------------3b4-| 
   ^       ^       ^       ^ 

e|--------------------------------| 
B|--------------------------0-0-0-| 
G|------------x-x-x-x-x-x-x-0-0-0-| 
D|------------x-x-x-x-x-x-x-0-0-0-| 
A|2---2-------x-x-x-x-x-x-x-------| 
E|0---0---3---x-x-x-x-x-x-x-------| 
  ^       ^       ^       ^ 


e|--------------------------------|--------------------------------| 
B|5---5---3---3---3---2---2---0---|5---5---3---3---3---2---2---0---| 
G|4---4---4---0---0---2---2---0---|4---4---4---0---0---2---2---0---| 
D|--------------------------------|--------------------------------| 
A|--------------------------------|--------------------------------| 
E|--------------------------------|--------------------------------| ==== 
 |                                |                                |  x4 
e|--------------------------------|--------------------------------| ==== 
B|17--17--15--15--15--14--14------|17--17--15--15--15--14--14------| 
G|16--16--16--12--12--14--14------|16--16--16--12--12--14--14------| 
D|--------------------------------|--------------------------------| 
A|--------------------------------|--------------------------------| 
E|--------------------------------|--------------------------------| 
   ^       ^       ^       ^        ^       ^       ^       ^ 

Repeat verse 


Break 
e|--------------------------------|--------------------------------| 
B|--------------------------------|6-----------6---x-x-x-x-0-0-0-0-| 
G|--------------------------------|6-----------6---x-x-x-x-0-0-0-0-| 
D|2---2---2---2---2---2---2---2---|6-----------6---x-x-x-x-0-0-0-0-| 
A|0---0---0---0---0---0---0---0---|4-----------4---x-x-x-x---------| 
E|--------------------------------|--------------------------------| 
  ^       ^       ^       ^        ^       ^       ^       ^ 

e|--------------------------------| 
B|------------4-------5---4---2---| ==== 
G|--------2---4-------5---4---2---|  x3 
D|4---4---2---4-------5---4---2---| ==== 
A|4---4---------------------------| 
E|--------------------------------| 
   ^       ^       ^       ^ 

e|----------------x-x-x-x-x-x-x-x-| 
B|------------4---x-x-x-x-x-x-x-x-| 
G|--------2---4---x-x-x-x-x-x-x-x-| 
D|4---4---2---4---x-x-x-x-x-x-x-x-| 
A|4---4---------------------------| 
E|--------------------------------| 
  ^       ^       ^       ^         

e|----------------------------------------------------------------| 
B|----------------------------------------------------------------| 
G|--------12----------12----------12----------12----------12------| 
D|12-h14------12-h14------12-h14------------------12-h14----------| 
A|----------------------------------------------------------------| 
E|----------------------------------------------------------------| 
  ^               ^               ^               ^ 

e|----------------------------------------------------------------| 
B|------------------------14-b15-r14------14-b15-r14------14-b15--| 
G|----------------12------14-b15-r14------14-b15-r14------14-b15--| 
D|----------------12----------------------------------------------| 
A|----------------------------------------------------------------| 
E|----------------------------------------------------------------| 
  ^               ^               ^               ^ 

e|----------------------------------------------------------------| 
B|14------14-b15-r14------14-b15-r14------14-b15-r14------14------| 
G|14------14-b15-r14------14-b15-r14------14-b15-r14------14------| 
D|----------------------------------------------------------------| 
A|----------------------------------------------------------------| 
E|----------------------------------------------------------------| 
  ^               ^               ^               ^ 

e|----------------------------------------------------------------| 
B|----------------------------------------------------------------| 
G|14-p12----------------------------------12--12------12--12------| 
D|--------14-p12--14-p12------------------12--12------12--12------| 
A|------------------------14\----\7-------------------------------| 
E|----------------------------------------------------------------| 
  ^               ^               ^               ^ 

e|--------12----------12------------------12--12--12--12----------| 
B|12-h15------12-h15------12-h15--12-h14------------------14-p12--| 
G|----------------------------------------------------------------| 
D|----------------------------------------------------------------| 
A|----------------------------------------------------------------| 
E|----------------------------------------------------------------| 
  ^               ^               ^               ^ 

e|15-p12------15-p12------12------15b17---15b17-----------x---x---| 
B|--------12----------12------12--------------------------x---x---| 
G|----------------------------------------------------------------| 
D|----------------------------------------------------------------| 
A|----------------------------------------------------------------| 
E|----------------------------------------------------------------| 
  ^               ^               ^               ^ 

e|15--15------15--15----------------------17--17--17--------------| 
B|----------------------------------------------------------------| 
G|16--16------16--16------16--16--16-h18--18--18--18--------------| 
D|----------------------------------------------------------------| 
A|----------------------------------------------------------------| 
E|----------------------------------------------------------------| 
  ^               ^               ^               ^ 

e|--------------------------------|--------------------------------| 
B|--------------------------------|3-------------------------------| 
G|14b16---14b16---14b16-----------|2-------------------------------| 
D|--------------------------------|0-------------------------------| 
A|------------------------12----0-|--------------------------------| 
E|------------------------12----0-|--------------------------------| 
  ^       ^       ^       ^        ^       ^       ^       ^ 

e|--------------------------------|--------------------------------| 
B|--------------------------------|--------------------------------| 
G|2-------------------------------|--------------------------------| 
D|2-------------------------------|------------2-----------2-------| 
A|0---------------------------2-2-|2-----------0-----------0-------| 
E|----------------------------0-0-|0-------3-------------------3b4-| 
  ^       ^       ^       ^        ^       ^       ^       ^ 

e|--------------------------------|--------------------------------| 
B|--------------------------------|--------------------------------| 
G|--------------------------------|2-------------------------------| 
D|------------2-----------2-------|0-------------------------------| 
A|2---2-------0-----------0-------|--------------------------------| 
E|0---0---3-----------------------|2-------------------------------| 
  ^       ^       ^       ^        ^       ^       ^       ^ 

e|--------------------------------|--------------------------------| 
B|--------------------------------|--------------------------------| 
G|--------------------------------|--------------------------------| 
D|2---2---2---2---2---2---2---2---|2---2---2---2---2---2---2---2---| 
A|0---0---0---0---0---0---0---0---|0---0---0---0---0---0---0---0---| 
E|--------------------------------|--------------------------------| 
  ^       ^       ^       ^        ^       ^       ^       ^ 

e|--------------------------------| 
B|------------------------0---0---| 
G|------------------------0---0---| 
D|2---2---2---2-----------0---0---| 
A|0---0---0---0-7/15--------------| 
E|--------------------------------| 
  ^       ^       ^       ^ 

Solo 

(two guitars:) 

Guitar 1 

e|--------------------------------| 
B|------------2---------------0---| ===== 
G|------------2---------------0---|  x12 
D|------------2---------------0---| ===== 
A|2---2-------0-------------------| 
E|0---0---3-------------------3---| 
   ^       ^       ^       ^ 

e|--------------------------------| 
B|8---8---------------------------| 
G|7---7---------------------------| 
D|6---6-------2-------------------| 
A|7---7---0---0---------------2---| 
E|--------0---------------3---0---| 
  ^       ^       ^       ^ 

e|--------------------------------| 
B|--------0---2---------------0---| ==== 
G|--------0---2---------------0---|  x3 
D|2---2---0---2---------------0---| ==== 
A|2---2---------------------------| 
E|--------------------------------| 
   ^       ^       ^       ^ 

Guitar 2 

e|----------------------------------------------------------------| 
B|---------------------------------------12------12-------12------| 
G|---------------------------------------14b16---14b16----14b16---| 
D|----------------------------------------------------------------| 
A|----------------------------------------------------------------| 
E|----------------------------------------------------------------| 
  ^               ^               ^               ^ 

e|----------------------------------------8b10----8b10----8b10----| 
B|----------------------------------------------------------------| 
G|----------------------------------------------------------------| 
D|----------------------------------------------------------------| 
A|----------------------------------------------------------------| 
E|----------------------------------------------------------------| 
  ^               ^               ^               ^ 

e|---------------------------------------10b12------------9b10----| 
B|----------------------------------------------------------------| 
G|----------------------------------------------------------------| 
D|----------------------------------------------------------------| 
A|----------------------------------------------------------------| 
E|----------------------------------------------------------------| 
  ^               ^               ^               ^ 

e|----------------------------------------------------------------| 
B|-------14--------------12--------------10-----------------------| 
G|-------16b18-----------14b16-----------12b14--------------------| 
D|----------------------------------------------------------------| 
A|----------------------------------------------------------------| 
E|----------------------------------------------------------------| 
  ^               ^               ^               ^ 

e|--------------------------------|--------------------------------| 
B|3b5---------------------5-------|--------------------------------| 
G|----------------------------2p0-|--------------------------------| 
D|--------------------------------|2---2-2-222222222222222222222222| 
A|--------------------------------|--------------------------------| 
E|--------------------------------|--------------------------------| 
  ^       ^       ^       ^        ^       ^       ^       ^ 

e|--------------------------------|--------------------------------| 
B|--------------------------2/12--|12\----2------------0-----------| 
G|--------------------------2/12--|12\----2------------0---2--b4---| 
D|22222-2b3333222b3333222-2-------|--------------------0-----------| 
A|--------------------------------|--------7/17\12p0---------------| 
E|--------------------------------|--------------------------------| 
  ^       ^       ^       ^        ^       ^       ^       ^ 

e|--------------------------------|--------------------------------| 
B|--------------------------------|--------------------------------| 
G|2----------------b4--r2b4-------|r2--------------------2b4-------| 
D|--------------------------------|--------------------------------| 
A|--------------------------------|--------------------------------| 
E|--------------------------------|--------------------------------| 
  ^       ^       ^       ^        ^       ^       ^       ^ 

e|--------------------------------|-----------------x-x-12-12-15-12| 
B|--------------------------------|-----------------x-x-12-12-15-12| 
G|r2--------------------2b4-------|r2---------------x-x------------| 
D|--------------------------------|--------------------------------| 
A|--------------------------------|--------------------------------| 
E|--------------------------------|--------------------------------| 
  ^       ^       ^       ^        ^       ^       ^       ^ 

e|--------12----------12--12------12------------------------------| 
B|12-h15------12-h15------12-h14--12------------------------------| 
G|-------------------------------------14b16--------------12------| 
D|------------------------------------------------------------14--| 
A|----------------------------------------------------------------| 
E|----------------------------------------------------------------| 
  ^               ^               ^               ^ 

e|12------12------------------------------------------------------| 
B|----15------12-h15-p12--12--------------------------------------| 
G|------------------------12---14b16--------------14-p12----------| 
D|--------------------------------------------------------14------| 
A|----------------------------------------------------------------| 
E|----------------------------------------------------------------| 
  ^               ^               ^               ^ 

e|------------12--------------------------------------------------| 
B|--------12------------------------------12--12--12--14--14------| 
G|12------------------12--12------x-------12--12--12--14--14------| 
D|12------------------12--12------x-------12--12--12--14--14------| 
A|----------------------------------------------------------------| 
E|----------------------------------------------------------------| 
  ^               ^               ^               ^ 

e|--------------------------------|2-------------------------------| 
B|12------------------------------|3-------------------------------| 
G|12------------0-------------0---|2-------------------------------| 
D|12------------0-12----------0---|0-------------------------------| 
A|--------14------12----------0---|--------------------------------| 
E|-----------------------12p0-----|--------------------------------| 
  ^       ^       ^       ^        ^       ^       ^       ^ 

e|--------------------------------|0------*12------0------*12------| 
B|--------------------------------|0------*12------0---*12---------| 
G|--------------------------------|0------*12------0---------------| 
D|2-------------------------------|--------------------------------| 
A|0-------------------------------|--------------------------------| 
E|--------------------------------|--------------------------------| 
  ^       ^       ^       ^        ^       ^       ^       ^ 
		  

See also:

tabs Blur - Coffee And TV tabs Ben Howard - Oats In The Water tabs Oasis - Stop crying your heart out tabs Jethro Tull - Mother Goose tabs Stone Temple Pilots - Interstate love song tabs Jethro Tull - Locomotive Breath Beginning
e-chords

Other versions:

tabs Kula Shaker - Knight On The Town
auto scroll beats size up size down change color hide chords drawings
tab show chords e-chords YouTube Clip e-chords hide all tabs e-chords go to top tab

share