Ksmb

Sverigevänner

Ksmb

tabs

by  CARLLUZ

save to print version add songbook text version e-mail correct tuner
chordsukulelecavacokeyboardtabbassdrumsharmonicaflute Guitar Pro
close

there isn't a video lesson for this song

chords

Sverigevänner

	  		
Intro 
eb|------------------------------------------------------------------------| 
Bb|------------------------------------------------------------------------| 
Gb|------------------------------------------------------------------------| 
Db|------------------------------------------------------------------------| 
Ab|--6-6-5-5-3-3-1-1-0-0-1-1-3-3-5-5-6-6-5-5-3-3-1-1-0-0-1-1-3-3-5-5-------| 
Eb|------------------------------------------------------------------------| 

eb|------------------------------------------------------------------------| 
Bb|------------------------------------------------------------------------| 
Gb|------------------------------------------------------------------------| 
Db|------------------------------------------------------------------------| 
Ab|--6-6-5-5-3-3-1-1-6-6-5-5-3-3-0-0-1-------------------------------------| 
Eb|------------------------------------------------------------------------| 
                             Let ring--------------------------------------| 

verse 1 
eb|------------------------------------------------------------------------| 
Bb|------------------------------------------------------------------------| 
Gb|--3--3--3--3---3----7--7--7--7---7----------------------8--8--8--8--8---| 
Db|--3--3--3--3---3----7--7--7--7---7----5--5--5--5---5----8--8--8--8--8---| 
Ab|--1--1--1--1---1----5--5--5--5---5----5--5--5--5---5----6--6--6--6--6---| 
Eb|--------------------------------------3--3--3--3---3--------------------|x4 

Pre-Chorus 
eb|------------------------------------------------------------------------| 
Bb|------------------------------------------------------------------------| 
Gb|--8-8-8-8-8-8-8-8-8-8-8-8-8-8-8-8-8-8-8-8-8-8-8-8-----------------------| 
Db|--8-8-8-8-8-8-8-8-8-8-8-8-8-8-8-8-8-8-8-8-8-8-8-8-----------------------| 
Ab|--6-6-6-6-6-6-6-6-6-6-6-6-6-6-6-6-6-6-6-6-6-6-6-6-----------------------| 
Eb|------------------------------------------------------------------------| 

Chorus 
eb|---------------1--1-----3--3--------------------------------------------| 
Bb|---------------1--1-----3--3--------------------------------------------| 
Gb|--3----3----------------------8----8--8---------------------------------| 
Db|--3----3-5--3--------5--------8----8--8---------------------------------| 
Ab|--1----1-5--3--------5--------6----6--6---------------------------------| 
Eb|---------3--1--------3--------------------------------------------------|x2 
          Let ring (on 2'nd time)------------------------------------------| 
Fill 1 
eb|------------------------------------------------------------------------| 
Bb|------------------------------------------------------------------------| 
Gb|------------------------------------------------------------------------| 
Db|------------------------------------------------------------------------| 
Ab|--6-6-5-5-3-3-1-1-6-6-5-5-3-3-0-0-1-------------------------------------| 
Eb|------------------------------------------------------------------------| 
                             Let ring--------------------------------------| 
verse 2 
eb|------------------------------------------------------------------------| 
Bb|------------------------------------------------------------------------| 
Gb|--3--3--3--3---3----7--7--7--7---7----------------------8--8--8--8---8--| 
Db|--3--3--3--3---3----7--7--7--7---7----5--5--5--5---5----8--8--8--8---8--| 
Ab|--1--1--1--1---1----5--5--5--5---5----5--5--5--5---5----6--6--6--6---6--| 
Eb|--------------------------------------3--3--3--3---3--------------------|x2 

Pre-Chorus 
eb|------------------------------------------------------------------------| 
Bb|------------------------------------------------------------------------| 
Gb|--8-8-8-8-8-8-8-8-8-8-8-8-8-8-8-8-8-8-8-8-8-8-8-8-----------------------| 
Db|--8-8-8-8-8-8-8-8-8-8-8-8-8-8-8-8-8-8-8-8-8-8-8-8-----------------------| 
Ab|--6-6-6-6-6-6-6-6-6-6-6-6-6-6-6-6-6-6-6-6-6-6-6-6-----------------------| 
Eb|------------------------------------------------------------------------| 

Chorus 
eb|---------------1--1-----3--3--------------------------------------------| 
Bb|---------------1--1-----3--3--------------------------------------------| 
Gb|--3----3----------------------8----8--8---------------------------------| 
Db|--3----3-5--3--------5--------8----8--8---------------------------------| 
Ab|--1----1-5--3--------5--------6----6--6---------------------------------| 
Eb|---------3--1--------3--------------------------------------------------|x2 
          Let ring (on 2'nd time)------------------------------------------| 

Fill 2 
eb|------------------------------------------------------------------------| 
Bb|------------------------------------------------------------------------| 
Gb|------------------------------------------------------------------------| 
Db|------------------------------------------------------------------------| 
Ab|--6-6-5-5-3-3-1-1-0-0-1-1-3-3-5-5-6-6-5-5-3-3-1-1-0-0-1-1-3-3-5-5-------| 
Eb|------------------------------------------------------------------------| 

eb|------------------------------------------------------------------------| 
Bb|------------------------------------------------------------------------| 
Gb|------------------------------------------------------------------------| 
Db|------------------------------------------------------------------------| 
Ab|--6-6-5-5-3-3-1-1-6-6-5-5-3-3-0-0-1-------------------------------------| 
Eb|------------------------------------------------------------------------| 
                             Let ring--------------------------------------| 

verse 3 
eb|------------------------------------------------------------------------| 
Bb|------------------------------------------------------------------------| 
Gb|--3--3--3--3---3----7--7--7--7---7----------------------8--8--8--8---8--| 
Db|--3--3--3--3---3----7--7--7--7---7----5--5--5--5---5----8--8--8--8---8--| 
Ab|--1--1--1--1---1----5--5--5--5---5----5--5--5--5---5----6--6--6--6---6--| 
Eb|--------------------------------------3--3--3--3---3--------------------| 

eb|------------------------------------------------------------------------| 
Bb|------------------------------------------------------------------------| 
Gb|--3--3--3--3---3----7--7--7--7---7--------------------------------------| 
Db|--3--3--3--3---3----7--7--7--7---7----5---------------------------------| 
Ab|--1--1--1--1---1----5--5--5--5---5----5---------------------------------| 
Eb|--------------------------------------3---------------------------------| 
                                          Break 

Chorus 
eb|---------------1--1-----3--3--------------------------------------------| 
Bb|---------------1--1-----3--3--------------------------------------------| 
Gb|--3----3----------------------8----8--8---------------------------------| 
Db|--3----3-5--3--------5--------8----8--8---------------------------------| 
Ab|--1----1-5--3--------5--------6----6--6---------------------------------| 
Eb|---------3--1--------3--------------------------------------------------|x2 
          Let ring (on 2'nd time)------------------------------------------| 

Fill 3/Outro 
eb|------------------------------------------------------------------------| 
Bb|------------------------------------------------------------------------| 
Gb|------------------------------------------------------------------------| 
Db|------------------------------------------------------------------------| 
Ab|--6-6-5-5-3-3-1-1-0-0-1-1-3-3-5-5-6-6-5-5-3-3-1-1-0-0-1-1-3-3-5-5-------| 
Eb|------------------------------------------------------------------------| 

eb|------------------------------------------------------------------------| 
Bb|------------------------------------------------------------------------| 
Gb|------------------------------------------------------------------------| 
Db|------------------------------------------------------------------------| 
Ab|--6-6-5-5-3-3-1-1-6-6-5-5-3-3-0-0-1-------------------------------------| 
Eb|------------------------------------------------------------------------| 
                             Let ring--------------------------------------| 



************************************ 

| b  Bend 

************************************ 
		  

See also:

tabs Deep Purple - Burn tabs Deep Purple - Lazy tabs Deep Purple - Deep Purple - Smoke On The Water tabs Deep Purple - Stormbringer tabs Deep Purple - Demon's Eye tabs Albert Hammond Jr - Holiday
e-chords

Other versions:

auto scroll beats size up size down change color hide chords drawings
tab show chords e-chords YouTube Clip e-chords hide all tabs e-chords go to top tab

share