Kreator

home > Kreator

Tormentor Tab

Kreator

Difficulty: BeginnerBeginner

by matrizarrojito

tuner correct add songbook print version text version save to e-mail
chordsukulelecavacokeyboardtabbassdrumsharmonicsflute Guitar Pro
chords

Tormentor

Year: 1985 - Album: Live Kreation

  		1) Main riff: ...continued with: 
G|-------------------------------| |-------------------------------| 
D|----------5-7-5---------3-5-3--| |----------5-7-5---------3-3-3--| 
A|--000000003-5-3-000000001-3-1--| |--000000003-5-3-000000001-1-1--| 
E|--........------........-------| |--........------........-------| 
 
2) Verse riff: 
G|----------------------------------------------------------------| 
D|----------------------------------5---------------4-------5--4--| 
A|--000000000000000000000000000000003-333333333333332-2222223--2--| 
E|--................................--..............--......------| 
 
3a) Pre-Chorus: 
G|---------------------------------------------------------------------| 
D|--------------------------10-10-10-------------------------10-10-10--| 
A|--555555555555555555555555-8--8--8-555555555555555555555555-8--8--8--| 
E|--.......................----------........................----------| 
 
3b) 
G|--------------------------------------------------------------| 
D|-------------------------5-7-5-------------------------5-7-5--| 
A|--000000000000000000000003-5-3-0000000000000000000000003-5-3--| 
E|--.......................------........................-------| 
 
4) Chorus: 
G|-----------------------------------------------------------------| 
D|----------------------------------2---------------2-------2-2-2--| 
A|--5---------------3---------------0-000000000000000-0000000-0-0--| 
E|--3-333333333333331-11111111111111--..............--.......------| 
.............. .............. 
 
5a) Outro: ...ends with: 
G|--------------------------------||-----------------------------------------| 
D|--------------2-------2---------||--------------------------------------2--| 
A|--3-3-3-5-5-5-0-0000000-000000--||--3-3-3-5-5-5-3-3-3-5-5-5-3-3-3-5-5-5-0--| 
E|--1-1-1-3-3-3---......--......--||--1-1-1-3-3-3-1-1-1-3-3-3-1-1-1-3-3-3----| 
 
 

	  

Search Paypal
auto scroll beats size up size down change color hide chords drawings
tab show chords e-chords YouTube Clip e-chords hide all tabs e-chords go to top tab