Kreator

Servant in Heaven / King in Hell

Kreator

tabs

by  EDUARDO_LYVIO

save to print version add songbook text version e-mail correct tuner
chordsukulelecavacokeyboardtabbassdrumsharmonicaflute Guitar Pro
close

there isn't a video lesson for this song

chords

Servant in Heaven / King in Hell

Year: 2001 - Album: Live Kreation

	  		Guitar intro 
 
e ||---------------------------------------------------------------- 
B ||---------------------------------------------------------------- 
G*||----------------------------------------------------------------  
D*||------------7-----8(let ring)-8-------------7-----8--10-7p8h7--- 
A ||------5-------------------------------5-----------------------8- 
D ||0-------------------------------0------------------------------- 
 
  e ----------------------------------------------------------------|| 
  B ----------------------------------------------------------------|| 
  G ----------------------------------------------------------------||* 
  D ------------7-----8(downslide)--------2-----5-----3-----2--3h2--||* 
  A ------5-------------------------3-----------------------------3-|| 
  D 0---------------------------------------------------------------|| 
 
  e|----------------------------------------------------------------| 
  B|----------------------------------------------------------------| 
  G|----------------------------------------------------------------| 
  D|------0-----3-----1-----0--1h0----------------------------------| 
  A|1-----------------------------1-0-----4-----7-----5-----4--5h47-| 
  D|----------------------------------------------------------------| 
 
 
Intro part 2 / Chorus (do not repeat pattern in Chorus) 
 
e ||---------------------------------------------------------------- 
B ||---------------------------------------------------------------- 
G*||----------------------------------------------------------------  
D*||---------------------------3-----------------5-----5--6--5------  
A ||5-----6--5--3--5-----6--5-----5-----6--5--6-----6-----------6--- 
D ||---000------------000------------000---------------------------- 
 
  e ----------------------------------------------------------------|| 
  B ----------------------------------------------------------------|| 
  G ----------------------------------------------------------------||* 
  D ---------------------------3-----------------5-----5--6(ring)---||* 
  A 5-----6--5--3--5-----6--5-----5-----6--5--6-----6---------------|| 
  D ---000------------000------------000----------------------------|| 
 
 
Verse 
 
e ||---------------------------------------------------------- 
B ||---------------------------------------------------------- 
G*||----------------------------------------------------------  
D*||----------------------------------------------------------  
A ||-------------------------------------------------1--0--3-- 
D ||0--00000--00000--00000--00000--00000--00000--00001--0--3-- 
 
  e ----------------------------------------------------------|| 
  B ----------------------------------------------------------|| 
  G ----------------------------------------------------------||* 
  D ----------------------------------------------------------||* 
  A -----------------------------------1--0--1--3--1--3--6----|| 
  D 0--00000--00000--00000--00000--00001--0--1--3--1--3--6----|| 
 
 
Bridge 
 
e ||----------------------------------------------------------|| 
B ||----------------------------------------------------------|| 
G*||----------------------------------------------------------|| * 
D*||---------------------------------------------------------3|| * 
A ||---------------------5--3--1--0-----6--5--3--5-----6--5---|| 
D ||3--33333--33333--33335--3--1--0--000------------000-------|| 
 
 e |---------------------------------------------------------- 
 B |---------------------------------------------------------- 
 G |---------------------------------------------------------- 
 D |---------------------------------------------------------3 
 A |---------------------5--3--1--0-----6--5--3--5-----6--5--- 
 D |1--11111--11111--11115--3--1--0--000------------000------- 
 
  e --------------------------------| 
  B --------------------------------| 
  G --------------------------------| 
  D -----------------------5--3-----| 
  A --------------5(mute)--------6--| 
  D 1--11111--11115( "" )-----------| 
 
 
*Chorus* 
 
*Verse* 
 
*Bridge* 
 
 
Break lead (double timing) 
 
    x3 
 e |-------------------------------------------------| 
 B |-------------------------------------------------| 
 G |-------------15-14-12----14-12-------12----------| 
 D |-12-15-14-15----------15-------15-14----15-14-12-| 
 A |-------------------------------------------------| 
 D |-------------------------------------------------| 
 
e ||-------------------------------------------------|| 
B ||-------------------------------------------------|| 
G*||-------------------------------------------------|| * 
D*||----12-14-15-14-15-14-12----12-14-15-14-15-14-12-|| * 
A ||-12----------------------12----------------------|| 
D ||-------------------------------------------------|| 
 
 
Break background 
 
e ||---------------------------------------------------------------- 
B ||---------------------------------------------------------------- 
G*||----------------------------------------------------------------  
D*||----------------------------------------------------------------  
A ||-----------------5-7----5-7----------------------5-7----755----- 
D ||-0-0-0-0-0-0-0-0-5-7----5-7------0-0-0-0-0-0-0-0-5-7----755----- 
 
  e ----------------------------------------------------------------|| 
  B ----------------------------------------------------------------|| 
  G ----------------------------------------------------------------||* 
  D ----------------------------------------------------------------||* 
  A -----------------5-7----5-7----------------------1-3----3-2-----|| 
  D -0-0-0-0-0-0-0-0-5-7----5-7------3-3-3-3-3-3-3-3-1-3----3-2-----|| 
 
 
Break verse 
 
e ||----------------------------------------------------------------|| 
B ||----------------------------------------------------------------|| 
G*||----------------------------------------------------------------|| * 
D*||----------------------------------------------------------------|| * 
A ||-------------------------------------------------5-7----5-7-----|| 
D ||-5-5-5-5-5-5-5-5-5-5-5-5-5-5-5-5-0-0-0-0-0-0-0-0-5-7----5-7-----|| 
 
 e |---------------------------------------------------------------- 
 B |---------------------------------------------------------------- 
 G |---------------------------------------------------------------- 
 D |---------------------------------------------------------------- 
 A |-------------------------------------------------5-7----5-7----- 
 D |-3-3-3-3-3-3-3-3-3-3-3-3-3-3-3-3-0-0-0-0-0-0-0-0-5-7----5-7----- 
 
  e ---------------------------------| 
  B ---------------------------------| 
  G ---------------------------------| 
  D ---------------------------------| 
  A ---------------------------------| 
   D  -3-3-3-3-3-3-3-3-3-3-3-3-3-3-3-3-| 
 
 
*Guitar intro* 
 
 
Solo background 
 
e ||------------------------------------------------ 
B ||------------------------------------------------ 
G*||------------------------------------------------  
D*||------------------------------------------------  
A ||0-----0-----0-----0-----6-----6-----6-----6----- 
D ||0-00000-00000-00000-00006-66666-66666-66666-6666 
 
  e ------------------------------------------------|| 
  B ------------------------------------------------|| 
  G ------------------------------------------------||* 
  D ------------------------------------------------||* 
  A 3-----3-----3-----3-----2-----2-----1-----1-----|| 
  D 3-33333-33333-33333-33332-22222-22221-11111-1111|| 
 
 
Guitar theme-riff (double timing) 
 
e ||-------------------------------------------------------------- 
B ||-------------------------------------------------------------- 
G*||--------------------------------------------------------------  
D*||10---10-10-10---12---13---12---10---10-10-10---12---13---12---  
A ||-------------------------------------------------------------- 
D ||-------------------------------------------------------------- 
 
  e -------------------------------------------------------------- 
  B -------------------------------------------------------------- 
  G ----------------8----7----5--------------------8----7----5---- 
  D 6----6--6--6-------------------6----6--6--6------------------- 
  A -------------------------------------------------------------- 
  D -------------------------------------------------------------- 
 
  e -------------------------------------------------------------- 
  B -------------------------------------------------------------- 
  G ---------------------8----10------------------------8----10--- 
  D 8----8--8--8----12-------------8----8--8--8----12------------- 
  A -------------------------------------------------------------- 
  D -------------------------------------------------------------- 
 
  e --------------------------------------------------------------|| 
  B --------------------------------------------------------------|| 
  G --------------------------------------------------------------||* 
  D --------------------------------------------------------------||* 
  A 3-------------------5-------6-------5------------8------------|| 
  D 3-------------------5-------6-------5------------8------------|| 
 
 
*Solo background* 
 
*Bridge* 
 
*Intro part 2* 
 

		  

See also:

tabs Kreator - Nonconformist tabs Kreator - Under The Guillotine tabs Kreator - Awakening Of The Gods tabs Tankard - G.A.L.O.W. tabs Kreator - Flag Of Hate tabs Kreator - Some Pain Will Last
e-chords

Other versions:

tabs Kreator - Servant in Heaven / King in Hell
auto scroll beats size up size down change color hide chords drawings
tab show chords e-chords YouTube Clip e-chords hide all tabs e-chords go to top tab

share