Kreator

Death To The World

Kreator

tabs

by  FERNSANTANA

save to print version add songbook text version e-mail correct tuner
chordsukulelecavacokeyboardtabbassdrumsharmonicaflute Guitar Pro
close

there isn't a video lesson for this song

chords

Death To The World

	  		E|-------------------|----------------------------------------| 
B|-------------------|----------------------------------------| 
G|-------------------|----------------------------------------| 
D|-------------------|--------4-----7-----5-------------------| 
A|-------------------|--5-----2-----5-------------------------| 
E|-------------------|--3--------------------0M---------------| 


----------------------------------------| 
----------------------------------------| 
----------------------------------------| 
--4-----5-----7-----5-------------------| 
----------------------------------------| 
-----0M----0M----0M----0M---------------| 


----------------------------------------| 
----------------------------------------| 
----------------------------------------| 
--------4-----------5-------------------| 
--5-----2-----3-------------------------| 
--3-----------1--------0M---------------| 


----------------------------------------| 
----------------------------------------| 
----------------------------------------| 
--4-----5-----7-----9-------------------| 
----------------------------------------| 
-----0M----0M----0M----0M---------------| 


----------------------------------------| 
----------------------------------------| 
----------------------------------------| 
--------------------3-------------------| 
--4-----5-----7-------------------------| 
--2-----3-----5--------0M---------------| 


----------------------------------------| 
----------------------------------------| 
----------------------------------------| 
--2-----3-----5-----7-------------------| 
----------------------------------------| 
-----0M----0M----0M----0M---------------| 


----------------------------------------------------------------| 
----------------------------------------------------------------| 
----------------------------------------------------------------| 
----------------------------------------------------------------| 
--5-----------9-----------8-------------------------------------| 
--3-----------7-----------6-----------0M-0M-0M-0M---------------| 


----------------------------------------------------------------| 
----------------------------------------------------------------| 
----------------------------------------------------------------| 
----------------------------------------------------------------| 
--------------------------1M-1M-1M-1M-2M-2M-2M-2M---------------| 
--1M-1M-1M-1M-3M-3M-3M-3M---------------------------------------| 


-------------------------------------------------| 
-------------------------------------------------| 
-------------------------------------------------| 
--------------4-----------7----------------------| 
--------------2-----------5----------------------| 
--3M-3M-3M-3M------------------------------------| 


----------------------------------------| 
----------------------------------------| 
----------------------------------------| 
--5-----4-----5-----7-------------------| 
----------------------------------------| 
-----0M----0M----0M----0M---------------| 


----------------------------------------| 
----------------------------------------| 
----------------------------------------| 
--5-----------4-------------------------| 
--------5-----2-----3-------------------| 
-----0M-3-----------1-------------------| 


----------------------------------------| 
----------------------------------------| 
----------------------------------------| 
--5-----4-----5-----7-------------------| 
----------------------------------------| 
-----0M----0M----0M----0M---------------| 


----------------------------------------| 
----------------------------------------| 
----------------------------------------| 
--9-------------------------------------| 
--------4-----5-----7-------------------| 
-----0M-2-----3-----5-------------------| 


----------------------------------------| 
----------------------------------------| 
----------------------------------------| 
--3-----2-----3-----5-------------------| 
----------------------------------------| 
-----0M----0M----0M----0M---------------| 


----------------------------------------------------------------| 
----------------------------------------------------------------| 
----------------------------------------------------------------| 
--7-----------5-----------3-------------------------------------| 
----------------------------------------------------------------| 
--------0M----------0M----------0M-0M-0M-0M-0M-0M---------------| 


----------------------------------------------------------------| 
----------------------------------------------------------------| 
----------------------------------------------------------------| 
----------------------------------------------------------------| 
--------------------------------------2M-2M-2M-2M---------------| 
--3M-3M-3M-3M-3M-3M-5M-5M-5M-5M-5M-5M---------------------------| 


----------------------------------------------------------------| 
----------------------------------------------------------------| 
----------------------------------------------------------------| 
----------------------------------------------------------------| 
----------------------------------------------------------------| 
--5M-5M-5M-5M-5M-5M-5M-5M-1M-1M-1M-1M-1M-1M-1M-1M---------------| 


----------------------------------------| 
----------------------------------------| 
----------------------------------------| 
--9--9----------------------------------| 
--10-10---------------------------------| 
--------0M-0M-0M-0M-0M-0M---------------| 


----------------------------------------| 
----------------------------------------| 
----------------------------------------| 
--9--9----------------------------------| 
--10-10---------------------------------| 
--------0M-0M-0M-0M-0M-0M---------------| 


----------------------------------------| 
----------------------------------------| 
----------------------------------------| 
--9--9----------------------------------| 
--10-10---------------------------------| 
--------0M-0M-0M-0M-0M-0M---------------| 


----------------------------------------| 
----------------------------------------| 
----------------------------------------| 
--------------9-------------------------| 
--10M9M-10M12M---12M10M9M---------------| 
----------------------------------------| 


----------------------------------------| 
----------------------------------------| 
----------------------------------------| 
--9--9----------------------------------| 
--10-10---------------------------------| 
--------0M-0M-0M-0M-0M-0M---------------| 


----------------------------------------| 
----------------------------------------| 
----------------------------------------| 
--9--9----------------------------------| 
--10-10---------------------------------| 
--------0M-0M-0M-0M-0M-0M---------------| 


----------------------------------------| 
----------------------------------------| 
----------------------------------------| 
--9--9----------------------------------| 
--10-10---------------------------------| 
--------0M-0M-0M-0M-0M-0M---------------| 


----------------------------------------| 
----------------------------------------| 
----------------------------------------| 
-----------------3-----7----------------| 
--4-----4M-5-----1-----5----------------| 
--2--0M-2M-3--0M------------------------| 


----------------------------------------------------------------| 
----------------------------------------------------------------| 
----------------------------------------------------------------| 
--6-------------------------------------------------------------| 
--4-------------------------------------------------------------| 
--------0M----0M-0M-0M----0M----0M----0M-0M-0M------------------| 


----------------------------------------------------------------| 
----------------------------------------------------------------| 
----------------------------------------------------------------| 
--------------------------------3-----------7-------------------| 
--------------------------------1-----------5-------------------| 
--0M----0M----0M-0M-0M----0M------------------------------------| 


----------------------------------------------------------------| 
----------------------------------------------------------------| 
----------------------------------------------------------------| 
--6-------------------------------------------------------------| 
--4-------------------------------------------------------------| 
--------0M----0M-0M-0M----0M----0M----0M-0M-0M------------------| 


----------------------------------------------------------------| 
----------------------------------------------------------------| 
----------------------------------------------------------------| 
--------------------------------3-----------7-------------------| 
--------------------------------1-----------5-------------------| 
--0M----0M----0M-0M-0M----0M------------------------------------| 


----------------------------------------------------------------| 
----------------------------------------------------------------| 
----------------------------------------------------------------| 
--6-------------------------------------------------------------| 
--4-------------------------------------------------------------| 
--------0M----0M-0M-0M----0M----0M----0M-0M-0M------------------| 


----------------------------------------------------------------| 
----------------------------------------------------------------| 
----------------------------------------------------------------| 
--------------------------------3-----------7-------------------| 
--------------------------------1-----------5-------------------| 
--0M----0M----0M-0M-0M----0M------------------------------------| 


----------------------------------------------------------------| 
----------------------------------------------------------------| 
----------------------------------------------------------------| 
--6-------------------------------------------------------------| 
--4-------------------------------------------------------------| 
--------0M----0M-0M-0M----0M----0M----0M-0M-0M------------------| 


----------------------------------------------------------------| 
----------------------------------------------------------------| 
----------------------------------------------------------------| 
--------------------------------3-----------7-------------------| 
--------------------------------1-----------5-------------------| 
--0M----0M----0M-0M-0M----0M------------------------------------| 


----------------------------------------| 
----------------------------------------| 
----------------------------------------| 
--9--9----------------------------------| 
--10-10---------------------------------| 
--------0M-0M-0M-0M-0M-0M---------------| 


----------------------------------------| 
----------------------------------------| 
----------------------------------------| 
--9--9----------------------------------| 
--10-10---------------------------------| 
--------0M-0M-0M-0M-0M-0M---------------| 


----------------------------------------| 
----------------------------------------| 
----------------------------------------| 
--9--9----------------------------------| 
--10-10---------------------------------| 
--------0M-0M-0M-0M-0M-0M---------------| 


----------------------------------------| 
----------------------------------------| 
----------------------------------------| 
--------------9-------------------------| 
--10M9M-10M12M---12M10M9M---------------| 
----------------------------------------| 


----------------------------------------| 
----------------------------------------| 
----------------------------------------| 
--9--9----------------------------------| 
--10-10---------------------------------| 
--------0M-0M-0M-0M-0M-0M---------------| 


----------------------------------------| 
----------------------------------------| 
----------------------------------------| 
--9--9----------------------------------| 
--10-10---------------------------------| 
--------0M-0M-0M-0M-0M-0M---------------| 


----------------------------------------| 
----------------------------------------| 
----------------------------------------| 
--9--9----------------------------------| 
--10-10---------------------------------| 
--------0M-0M-0M-0M-0M-0M---------------| 


----------------------------------------| 
----------------------------------------| 
----------------------------------------| 
-----------------3-----7----------------| 
--4-----4M-5-----1-----5----------------| 
--2--0M-2M-3--0M------------------------| 


----------------------------------------------------------------| 
----------------------------------------------------------------| 
----------------------------------------------------------------| 
--6-------------------------------------------------------------| 
--4-------------------------------------------------------------| 
--------0M----0M-0M-0M----0M----0M----0M-0M-0M------------------| 


----------------------------------------------------------------| 
----------------------------------------------------------------| 
----------------------------------------------------------------| 
--------------------------------3-----------7-------------------| 
--------------------------------1-----------5-------------------| 
--0M----0M----0M-0M-0M----0M------------------------------------| 


----------------------------------------------------------------| 
----------------------------------------------------------------| 
----------------------------------------------------------------| 
--6-------------------------------------------------------------| 
--4-------------------------------------------------------------| 
--------0M----0M-0M-0M----0M----0M----0M-0M-0M------------------| 


----------------------------------------------------------------| 
----------------------------------------------------------------| 
----------------------------------------------------------------| 
--------------------------------3-----------7-------------------| 
--------------------------------1-----------5-------------------| 
--0M----0M----0M-0M-0M----0M------------------------------------| 


----------------------------------------------------------------| 
----------------------------------------------------------------| 
----------------------------------------------------------------| 
--6-------------------------------------------------------------| 
--4-------------------------------------------------------------| 
--------0M----0M-0M-0M----0M----0M----0M-0M-0M------------------| 


----------------------------------------------------------------| 
----------------------------------------------------------------| 
----------------------------------------------------------------| 
--------------------------------3-----------7-------------------| 
--------------------------------1-----------5-------------------| 
--0M----0M----0M-0M-0M----0M------------------------------------| 


----------------------------------------------------------------| 
----------------------------------------------------------------| 
----------------------------------------------------------------| 
--6-------------------------------------------------------------| 
--4-------------------------------------------------------------| 
--------0M----0M-0M-0M----0M----0M----0M-0M-0M------------------| 


----------------------------------------------------------------| 
----------------------------------------------------------------| 
----------------------------------------------------------------| 
--------------------------------3-----------7-------------------| 
--------------------------------1-----------5-------------------| 
--0M----0M----0M-0M-0M----0M------------------------------------| 


----------------------------------------|-------------| 
----------------------------------------|-------------| 
--------------2-----2--4----------------|--5----------| 
--3--2M-3M-5M----5M---------------------|-------------| 
----------------------------------------|-------------| 
----------------------------------------|-------------| 


----------------------------------------| 
----------------------------------------| 
----------------------------------------| 
--------4-----7-----5-------------------| 
--5-----2-----5-------------------------| 
--3--------------------0M---------------| 


----------------------------------------| 
----------------------------------------| 
----------------------------------------| 
--4-----5-----7-----5-------------------| 
----------------------------------------| 
-----0M----0M----0M----0M---------------| 


----------------------------------------| 
----------------------------------------| 
----------------------------------------| 
--------4-----------5-------------------| 
--5-----2-----3-------------------------| 
--3-----------1--------0M---------------| 


----------------------------------------| 
----------------------------------------| 
----------------------------------------| 
--4-----5-----7-----9-------------------| 
----------------------------------------| 
-----0M----0M----0M----0M---------------| 


----------------------------------------| 
----------------------------------------| 
----------------------------------------| 
--------------------3-------------------| 
--4-----5-----7-------------------------| 
--2-----3-----5--------0M---------------| 


----------------------------------------| 
----------------------------------------| 
----------------------------------------| 
--2-----3-----5-----7-------------------| 
----------------------------------------| 
-----0M----0M----0M----0M---------------| 


----------------------------------------------------------------| 
----------------------------------------------------------------| 
----------------------------------------------------------------| 
----------------------------------------------------------------| 
--5-----------9-----------8-------------------------------------| 
--3-----------7-----------6-----------0M-0M-0M-0M---------------| 


----------------------------------------------------------------| 
----------------------------------------------------------------| 
----------------------------------------------------------------| 
----------------------------------------------------------------| 
--------------------------1M-1M-1M-1M-2M-2M-2M-2M---------------| 
--1M-1M-1M-1M-3M-3M-3M-3M---------------------------------------| 


-------------------------------------------------| 
-------------------------------------------------| 
-------------------------------------------------| 
--------------4-----------7----------------------| 
--------------2-----------5----------------------| 
--3M-3M-3M-3M------------------------------------| 


----------------------------------------| 
----------------------------------------| 
----------------------------------------| 
--5-----4-----5-----7-------------------| 
----------------------------------------| 
-----0M----0M----0M----0M---------------| 


----------------------------------------| 
----------------------------------------| 
----------------------------------------| 
--5-----------4-------------------------| 
--------5-----2-----3-------------------| 
-----0M-3-----------1-------------------| 


----------------------------------------| 
----------------------------------------| 
----------------------------------------| 
--5-----4-----5-----7-------------------| 
----------------------------------------| 
-----0M----0M----0M----0M---------------| 


----------------------------------------| 
----------------------------------------| 
----------------------------------------| 
--9-------------------------------------| 
--------4-----5-----7-------------------| 
-----0M-2-----3-----5-------------------| 


----------------------------------------| 
----------------------------------------| 
----------------------------------------| 
--3-----2-----3-----5-------------------| 
----------------------------------------| 
-----0M----0M----0M----0M---------------| 


----------------------------------------------------------------| 
----------------------------------------------------------------| 
----------------------------------------------------------------| 
--7-----------5-----------3-------------------------------------| 
----------------------------------------------------------------| 
--------0M----------0M----------0M-0M-0M-0M-0M-0M---------------| 


----------------------------------------------------------------| 
----------------------------------------------------------------| 
----------------------------------------------------------------| 
----------------------------------------------------------------| 
--------------------------------------2M-2M-2M-2M---------------| 
--3M-3M-3M-3M-3M-3M-5M-5M-5M-5M-5M-5M---------------------------| 


----------------------------------------------------------------| 
----------------------------------------------------------------| 
----------------------------------------------------------------| 
----------------------------------------------------------------| 
----------------------------------------------------------------| 
--5M-5M-5M-5M-5M-5M-5M-5M-1M-1M-1M-1M-1M-1M-1M-1M---------------| 


----------------------------------------| 
----------------------------------------| 
----------------------------------------| 
--9--9----------------------------------| 
--10-10---------------------------------| 
--------0M-0M-0M-0M-0M-0M---------------| 


----------------------------------------| 
----------------------------------------| 
----------------------------------------| 
--9--9----------------------------------| 
--10-10---------------------------------| 
--------0M-0M-0M-0M-0M-0M---------------| 


----------------------------------------| 
----------------------------------------| 
----------------------------------------| 
--9--9----------------------------------| 
--10-10---------------------------------| 
--------0M-0M-0M-0M-0M-0M---------------| 


----------------------------------------| 
----------------------------------------| 
----------------------------------------| 
--------------9-------------------------| 
--10M9M-10M12M---12M10M9M---------------| 
----------------------------------------| 


----------------------------------------| 
----------------------------------------| 
----------------------------------------| 
--9--9----------------------------------| 
--10-10---------------------------------| 
--------0M-0M-0M-0M-0M-0M---------------| 


----------------------------------------| 
----------------------------------------| 
----------------------------------------| 
--9--9----------------------------------| 
--10-10---------------------------------| 
--------0M-0M-0M-0M-0M-0M---------------| 


----------------------------------------| 
----------------------------------------| 
----------------------------------------| 
--9--9----------------------------------| 
--10-10---------------------------------| 
--------0M-0M-0M-0M-0M-0M---------------| 


----------------------------------------| 
----------------------------------------| 
----------------------------------------| 
-----------------3-----7----------------| 
--4-----4M-5-----1-----5----------------| 
--2--0M-2M-3--0M------------------------| 


----------------------------------------------------------------| 
----------------------------------------------------------------| 
----------------------------------------------------------------| 
--6-------------------------------------------------------------| 
--4-------------------------------------------------------------| 
--------0M----0M-0M-0M----0M----0M----0M-0M-0M------------------| 


----------------------------------------------------------------| 
----------------------------------------------------------------| 
----------------------------------------------------------------| 
--------------------------------3-----------7-------------------| 
--------------------------------1-----------5-------------------| 
--0M----0M----0M-0M-0M----0M------------------------------------| 


----------------------------------------------------------------| 
----------------------------------------------------------------| 
----------------------------------------------------------------| 
--6-------------------------------------------------------------| 
--4-------------------------------------------------------------| 
--------0M----0M-0M-0M----0M----0M----0M-0M-0M------------------| 


----------------------------------------------------------------| 
----------------------------------------------------------------| 
----------------------------------------------------------------| 
--------------------------------3-----------7-------------------| 
--------------------------------1-----------5-------------------| 
--0M----0M----0M-0M-0M----0M------------------------------------| 


----------------------------------------------------------------| 
----------------------------------------------------------------| 
----------------------------------------------------------------| 
--6-------------------------------------------------------------| 
--4-------------------------------------------------------------| 
--------0M----0M-0M-0M----0M----0M----0M-0M-0M------------------| 


----------------------------------------------------------------| 
----------------------------------------------------------------| 
----------------------------------------------------------------| 
--------------------------------3-----------7-------------------| 
--------------------------------1-----------5-------------------| 
--0M----0M----0M-0M-0M----0M------------------------------------| 


----------------------------------------------------------------| 
----------------------------------------------------------------| 
----------------------------------------------------------------| 
--6-------------------------------------------------------------| 
--4-------------------------------------------------------------| 
--------0M----0M-0M-0M----0M----0M----0M-0M-0M------------------| 


----------------------------------------------------------------| 
----------------------------------------------------------------| 
----------------------------------------------------------------| 
--------------------------------3-----------7-------------------| 
--------------------------------1-----------5-------------------| 
--0M----0M----0M-0M-0M----0M------------------------------------| 


----------------------------------------|-------------| 
----------------------------------------|-------------| 
--------------2-----2--4----------------|--5----------| 
--3--2M-3M-5M----5M---------------------|-------------| 
----------------------------------------|-------------| 
----------------------------------------|-------------| 


----------------------------------------| 
----------------------------------------| 
----------------------------------------| 
--------4-----7-----5-------------------| 
--5-----2-----5-------------------------| 
--3--------------------0M---------------| 


----------------------------------------| 
----------------------------------------| 
----------------------------------------| 
--4-----5-----7-----5-------------------| 
----------------------------------------| 
-----0M----0M----0M----0M---------------| 


----------------------------------------| 
----------------------------------------| 
----------------------------------------| 
--------4-----------5-------------------| 
--5-----2-----3-------------------------| 
--3-----------1--------0M---------------| 


----------------------------------------| 
----------------------------------------| 
----------------------------------------| 
--4-----5-----7-----9-------------------| 
----------------------------------------| 
-----0M----0M----0M----0M---------------| 


----------------------------------------| 
----------------------------------------| 
----------------------------------------| 
--------------------3-------------------| 
--4-----5-----7-------------------------| 
--2-----3-----5--------0M---------------| 


----------------------------------------| 
----------------------------------------| 
----------------------------------------| 
--2-----3-----5-----7-------------------| 
----------------------------------------| 
-----0M----0M----0M----0M---------------| 


----------------------------------------------------------------| 
----------------------------------------------------------------| 
----------------------------------------------------------------| 
----------------------------------------------------------------| 
--5-----------9-----------8-------------------------------------| 
--3-----------7-----------6-----------0M-0M-0M-0M---------------| 


----------------------------------------------------------------| 
----------------------------------------------------------------| 
----------------------------------------------------------------| 
----------------------------------------------------------------| 
--------------------------1M-1M-1M-1M-2M-2M-2M-2M---------------| 
--1M-1M-1M-1M-3M-3M-3M-3M---------------------------------------| 


-------------------------------------------------| 
-------------------------------------------------| 
-------------------------------------------------| 
--------------4-----------7----------------------| 
--------------2-----------5----------------------| 
--3M-3M-3M-3M------------------------------------| 


----------------------------------------| 
----------------------------------------| 
----------------------------------------| 
--5-----4-----5-----7-------------------| 
----------------------------------------| 
-----0M----0M----0M----0M---------------| 


----------------------------------------| 
----------------------------------------| 
----------------------------------------| 
--5-----------4-------------------------| 
--------5-----2-----3-------------------| 
-----0M-3-----------1-------------------| 


----------------------------------------| 
----------------------------------------| 
----------------------------------------| 
--5-----4-----5-----7-------------------| 
----------------------------------------| 
-----0M----0M----0M----0M---------------| 


----------------------------------------| 
----------------------------------------| 
----------------------------------------| 
--9-------------------------------------| 
--------4-----5-----7-------------------| 
-----0M-2-----3-----5-------------------| 


----------------------------------------| 
----------------------------------------| 
----------------------------------------| 
--3-----2-----3-----5-------------------| 
----------------------------------------| 
-----0M----0M----0M----0M---------------| 


----------------------------------------------------------------| 
----------------------------------------------------------------| 
----------------------------------------------------------------| 
--7-----------5-----------3-------------------------------------| 
----------------------------------------------------------------| 
--------0M----------0M----------0M-0M-0M-0M-0M-0M---------------| 


----------------------------------------------------------------| 
----------------------------------------------------------------| 
----------------------------------------------------------------| 
----------------------------------------------------------------| 
--------------------------------------2M-2M-2M-2M---------------| 
--3M-3M-3M-3M-3M-3M-5M-5M-5M-5M-5M-5M---------------------------| 


----------------------------------------------------------------| 
----------------------------------------------------------------| 
----------------------------------------------------------------| 
----------------------------------------------------------------| 
----------------------------------------------------------------| 
--5M-5M-5M-5M-5M-5M-5M-5M-1M-1M-1M-1M-1M-1M-1M-1M---------------| 


-------------------|-------------|----------------------------------------| 
-------------------|-------------|----------------------------------------| 
--9L---------------|--9----------|--11-9M-11M12L---------12L--------------| 
-------------------|-------------|----------------------------------------| 
--7L---------------|--7----------|--9--7M-9M-10L---------10L--------------| 
-------------------|-------------|----------------------------------------| 


-------------------|----------------------------------------| 
-------------------|----------------------------------------| 
--12---------------|--14-12M14M16L16L------16L--------------| 
-------------------|----------------------------------------| 
--10---------------|--12-10M12M14L14L------14L--------------| 
-------------------|----------------------------------------| 


-------------------|----------------------------------------| 
-------------------|----------------------------------------| 
--16---------------|--14-12M14M12L---------12---------------| 
-------------------|----------------------------------------| 
--14---------------|--12-10M12M10L---------10---------------| 
-------------------|----------------------------------------| 


----------------------------------------| 
----------------------------------------| 
--11-9M-11M9L----------9----------------| 
----------------------------------------| 
--9--7M-9M-7L----------7----------------| 
----------------------------------------| 


----------------------------------------|-------------------| 
----------------------------------------|-------------------| 
--7--4M-7M-9L----------9L---------------|--9----------------| 
----------------------------------------|-------------------| 
--5--2M-5M-7L----------7L---------------|--7----------------| 
----------------------------------------|-------------------| 


----------------------------------------|-------------------| 
----------------------------------------|-------------------| 
--11-9M-11M12L---------12L--------------|--12---------------| 
----------------------------------------|-------------------| 
--9--7M-9M-10L---------10L--------------|--10---------------| 
----------------------------------------|-------------------| 


----------------------------------------|-------------------| 
----------------------------------------|-------------------| 
--14-12M14M16L16L------16L--------------|--16---------------| 
----------------------------------------|-------------------| 
--12-10M12M14L14L------14L--------------|--14---------------| 
----------------------------------------|-------------------| 


----------------------------------------| 
----------------------------------------| 
--17-16M17M19L---------19---------------| 
----------------------------------------| 
--15-14M15M17L---------17---------------| 
----------------------------------------| 


----------------------------------------|-------------------|-------------| 
----------------------------------------|-------------------|-------------| 
--21-19M21M22L---------22---------------|--9L---------------|--9----------| 
----------------------------------------|-------------------|-------------| 
--19-17M19M20L---------20---------------|--7L---------------|--7----------| 
----------------------------------------|-------------------|-------------| 


----------------------------------------|-------------------| 
----------------------------------------|-------------------| 
--11-9M-11M12L---------12L--------------|--12---------------| 
----------------------------------------|-------------------| 
--9--7M-9M-10L---------10L--------------|--10---------------| 
----------------------------------------|-------------------| 


----------------------------------------|-------------------| 
----------------------------------------|-------------------| 
--14-12M14M16L16L------16L--------------|--16---------------| 
----------------------------------------|-------------------| 
--12-10M12M14L14L------14L--------------|--14---------------| 
----------------------------------------|-------------------| 


----------------------------------------| 
----------------------------------------| 
--14-12M14M12L---------12---------------| 
----------------------------------------| 
--12-10M12M10L---------10---------------| 
----------------------------------------| 


----------------------------------------| 
----------------------------------------| 
--11-9M-11M9L----------9----------------| 
----------------------------------------| 
--9--7M-9M-7L----------7----------------| 
----------------------------------------| 


----------------------------------------|-------------------| 
----------------------------------------|-------------------| 
--7--4M-7M-9L----------9L---------------|--9----------------| 
----------------------------------------|-------------------| 
--5--2M-5M-7L----------7L---------------|--7----------------| 
----------------------------------------|-------------------| 


----------------------------------------|-------------------| 
----------------------------------------|-------------------| 
--11-9M-11M12L---------12L--------------|--12---------------| 
----------------------------------------|-------------------| 
--9--7M-9M-10L---------10L--------------|--10---------------| 
----------------------------------------|-------------------| 


----------------------------------------|-------------------| 
----------------------------------------|-------------------| 
--14-12M14M16L16L------16L--------------|--16---------------| 
----------------------------------------|-------------------| 
--12-10M12M14L14L------14L--------------|--14---------------| 
----------------------------------------|-------------------| 


----------------------------------------| 
----------------------------------------| 
--17-16M17M19L---------19---------------| 
----------------------------------------| 
--15-14M15M17L---------17---------------| 
----------------------------------------| 


----------------------------------------| 
----------------------------------------| 
--21-19M21M22L---------22---------------| 
----------------------------------------| 
--19-17M19M20L---------20---------------| 
----------------------------------------| 


----------------------------------------------------------------| 
----------------------------------------------------------------| 
----------------------------------------------------------------| 
--------------------5-----------------5-------------------------| 
--3-----3M-3M-3M----------3M-3M-3M----------3M------------------| 
----------------------------------------------------------------| 


----------------------------------------------------------------| 
----------------------------------------------------------------| 
----------------------------------------------------------------| 
--2-----------------5-----------------2-------------------------| 
--------3M-3M-3M----------3M-3M-3M------------------------------| 
----------------------------------------------------------------| 


----------------------------------------------------------------| 
----------------------------------------------------------------| 
----------------------------------------------------------------| 
--------------------7-----------------7-------------------------| 
--5-----5M-5M-5M----------5M-5M-5M----------5M------------------| 
----------------------------------------------------------------| 


----------------------------------------------------------------| 
----------------------------------------------------------------| 
----------------------------------------------------------------| 
--4-----------------7-----------------4-------------------------| 
--------5M-5M-5M----------5M-5M-5M------------------------------| 
----------------------------------------------------------------| 


----------------------------------------------------------------| 
----------------------------------------------------------------| 
----------------------------------------------------------------| 
--2-----------------------4-----5-----4-------------------------| 
--0-----0M-0M-0M-0M-0M-0M-2-----3-----2-------------------------| 
----------------------------------------------------------------| 


----------------------------------------------------------------| 
----------------------------------------------------------------| 
----------------------------------------------------------------| 
--2-----------------------5-----7-----5-------------------------| 
--0-----0M-0M-0M-0M-0M-0M-3-----5-----3-------------------------| 
----------------------------------------------------------------| 


----------------------------------------------------------------| 
----------------------------------------------------------------| 
----------------------------------------------------------------| 
--2-----------------------4-----5-----4-------------------------| 
--0-----0M-0M-0M-0M-0M-0M-2-----3-----2-------------------------| 
----------------------------------------------------------------| 


----------------------------------------------------------------| 
----------------------------------------------------------------| 
----------------------------------------------------------------| 
--2-----------------------5-----------7-------------------------| 
--0-----0M-0M-0M-0M-0M-0M-3-----------5-------------------------| 
----------------------------------------------------------------| 


----------------------------------------------------------------| 
----------------------------------------------------------------| 
----------------------------------------------------------------| 
--------------------5-----------------5-------------------------| 
--3-----3M-3M-3M----------3M-3M-3M----------3M------------------| 
----------------------------------------------------------------| 


----------------------------------------------------------------| 
----------------------------------------------------------------| 
----------------------------------------------------------------| 
--2-----------------5-----------------2-------------------------| 
--------3M-3M-3M----------3M-3M-3M------------------------------| 
----------------------------------------------------------------| 


----------------------------------------------------------------| 
----------------------------------------------------------------| 
----------------------------------------------------------------| 
--------------------7-----------------7-------------------------| 
--5-----5M-5M-5M----------5M-5M-5M----------5M------------------| 
----------------------------------------------------------------| 


----------------------------------------------------------------| 
----------------------------------------------------------------| 
----------------------------------------------------------------| 
--4-----------------7-----------------4-------------------------| 
--------5M-5M-5M----------5M-5M-5M------------------------------| 
----------------------------------------------------------------| 


----------------------------------------------------------------| 
----------------------------------------------------------------| 
----------------------------------------------------------------| 
--2-----------------------4-----5-----4-------------------------| 
--0-----0M-0M-0M-0M-0M-0M-2-----3-----2-------------------------| 
----------------------------------------------------------------| 


----------------------------------------------------------------| 
----------------------------------------------------------------| 
----------------------------------------------------------------| 
--2-----------------------5-----7-----5-------------------------| 
--0-----0M-0M-0M-0M-0M-0M-3-----5-----3-------------------------| 
----------------------------------------------------------------| 


----------------------------------------------------------------| 
----------------------------------------------------------------| 
----------------------------------------------------------------| 
--2-----------------------4-----5-----4-------------------------| 
--0-----0M-0M-0M-0M-0M-0M-2-----3-----2-------------------------| 
----------------------------------------------------------------| 


----------------------------------------------------------------| 
----------------------------------------------------------------| 
----------------------------------------------------------------| 
--2-----------------------5-----------7-------------------------| 
--0-----0M-0M-0M-0M-0M-0M-3-----------5-------------------------| 
----------------------------------------------------------------| 


----------------------------------------| 
----------------------------------------| 
----------------------------------------| 
-----------7L----7--9-------------------| 
--8L----8-------------------------------| 
----------------------------------------| 


----------------------------------------------------------------| 
----------------------------------------------------------------| 
----------------------------------------------------------------| 
--10L---------10----9-----------10h9h-7-------------------------| 
----------------------------------------------------------------| 
----------------------------------------------------------------| 


-------------------|-------------------| 
-------------------|-------------------| 
-------------------|-------------------| 
--5~---------------|--5~---------------| 
-------------------|-------------------| 
-------------------|-------------------| 


----------------------------------------| 
----------------------------------------| 
----------------------------------------| 
-----------9L----9--10------------------| 
--10L---10------------------------------| 
----------------------------------------| 


----------------------------------------|-------------------| 
----------------------------------------|-------------------| 
----------------------------------------|-------------------| 
--12L---12-10L---10-9-------------------|-------------------| 
----------------------------------------|--8~---------------| 
----------------------------------------|-------------------| 


-------------------|----------------------------------------| 
-------------------|----------------------------------------| 
-------------------|----------------------------------------| 
-------------------|-----------7L----7--9-------------------| 
--7~---------------|--8L----8-------------------------------| 
-------------------|----------------------------------------| 


----------------------------------------------------------------| 
----------------------------------------------------------------| 
----------------------------------------------------------------| 
--10L---------10----9-----------10h9h-7-------------------------| 
----------------------------------------------------------------| 
----------------------------------------------------------------| 


-------------------|-------------------| 
-------------------|-------------------| 
-------------------|-------------------| 
--5~---------------|--5~---------------| 
-------------------|-------------------| 
-------------------|-------------------| 


----------------------------------------| 
----------------------------------------| 
----------------------------------------| 
-----------9L----9--10------------------| 
--10L---10------------------------------| 
----------------------------------------| 


----------------------------------------|-------------------| 
----------------------------------------|-------------------| 
----------------------------------------|--9~---------------| 
--12L---12-10L---10-9-------------------|-------------------| 
----------------------------------------|-------------------| 
----------------------------------------|-------------------| 


-------------------|----------------------------|----------------------------| 
-------------------|----------------------------|----------------------------| 
--10~--------------|----------------------------|----------------------------| 
-------------------|----------------------------|----------------------------| 
-------------------|--2-----4M-5L---------------|--5L-5--7--5----------------| 
-------------------|--0-----2M-3L---------------|--3L-3--5--3----------------| 


----------------------------------------|-------------------------------| 
----------------------------------------|-------------------------------| 
----------------------------------------|-------------------------------| 
----------------------------------------|-------------------------------| 
--10L---10-12----10----9L---------------|--9--2M----4M-5M---------------| 
--8L----8--10----8-----7----------------|-----0M----2M-3M---------------| 


----------------------------|----------------------------| 
----------------------------|----------------------------| 
----------------------------|----------------------------| 
----------------------------|----------------------------| 
--2-----4M-5L---------------|--5L-5--7--5----------------| 
--0-----2M-3L---------------|--3L-3--5--3----------------| 


----------------------------------------|-------------------------------| 
----------------------------------------|-------------------------------| 
----------------------------------------|-------------------------------| 
----------------------------------------|-------------------------------| 
--7L----7--9-----7-----5L---------------|--5--2M----4M-5M---------------| 
--5L----5--7-----5-----3----------------|-----0M----2M-3M---------------| 


----------------------------|----------------------------| 
----------------------------|----------------------------| 
----------------------------|----------------------------| 
----------------------------|----------------------------| 
--2-----4M-5L---------------|--5L-5--7--5----------------| 
--0-----2M-3L---------------|--3L-3--5--3----------------| 


----------------------------------------|-------------------------------| 
----------------------------------------|-------------------------------| 
----------------------------------------|-------------------------------| 
----------------------------------------|-------------------------------| 
--10L---10-12----10----9L---------------|--9--2M----4M-5M---------------| 
--8L----8--10----8-----7----------------|-----0M----2M-3M---------------| 


----------------------------|----------------------------| 
----------------------------|----------------------------| 
----------------------------|----------------------------| 
----------------------------|----------------------------| 
--2-----4M-5L---------------|--5L-5--7--5----------------| 
--0-----2M-3L---------------|--3L-3--5--3----------------| 


----------------------------------------|-------------------------------| 
----------------------------------------|-------------------------------| 
----------------------------------------|-------------------------------| 
----------------------------------------|-------------------------------| 
--7L----7--9-----7-----5L---------------|--5--2M----4M-5M---------------| 
--5L----5--7-----5-----3----------------|-----0M----2M-3M---------------| 


----------------------------------------|----------------------| 
----------------------------------------|----------------------| 
----------------------------------------|----------------------| 
----------------------------------------|-----5----------------| 
--4L----4--5L-5L-5M-7M------------------|--2-------------------| 
--2L----2--3L-3L-3M-5M------------------|--0-------------------| 


----------------------| 
----------------------| 
----------------------| 
--9--7----------------| 
----------------------| 
----------------------| 


----------------------------------------------------------------| 
----------------------------------------------------------------| 
----------------------------------------------------------------| 
--5-----------------------4h-5h-4h-5h-4h-5h-4h-5h---------------| 
----------------------------------------------------------------| 
----------------------------------------------------------------| 


----------------------------------------|----------------------| 
----------------------------------------|----------------------| 
----------------------------------------|----------------------| 
----------------------------------------|-----5----------------| 
--4L----4--5L-5L-5M-7M------------------|--10------------------| 
--2L----2--3L-3L-3M-5M------------------|--8-------------------| 


----------------------| 
----------------------| 
----------------------| 
--10-9----------------| 
----------------------| 
----------------------| 


----------------------------------------------------------------| 
----------------------------------------------------------------| 
----------------------------------------------------------------| 
--12----------------------10h12h10h12h10h12h10h12h--------------| 
----------------------------------------------------------------| 
----------------------------------------------------------------| 


----------------------------------------|----------------------| 
----------------------------------------|----------------------| 
----------------------------------------|----------------------| 
----------------------------------------|-----5----------------| 
--4L----4--5L-5L-5M-7M------------------|--2-------------------| 
--2L----2--3L-3L-3M-5M------------------|--0-------------------| 


----------------------| 
----------------------| 
----------------------| 
--9--7----------------| 
----------------------| 
----------------------| 


----------------------------------------------------------------| 
----------------------------------------------------------------| 
----------------------------------------------------------------| 
--5-----------------------4h-5h-4h-5h-4h-5h-4h-5h---------------| 
----------------------------------------------------------------| 
----------------------------------------------------------------| 


----------------------------------------|----------------------| 
----------------------------------------|----------------------| 
----------------------------------------|----------------------| 
----------------------------------------|-----5----------------| 
--4L----4--5L-5L-5M-7M------------------|--10------------------| 
--2L----2--3L-3L-3M-5M------------------|--8-------------------| 


----------------------|-------------|----------------------------------------| 
----------------------|-------------|----------------------------------------| 
----------------------|-------------|----------------------------------------| 
--10-9----------------|--12---------|--------4-----7-----5-------------------| 
----------------------|-------------|--5-----2-----5-------------------------| 
----------------------|-------------|--3--------------------0M---------------| 


----------------------------------------| 
----------------------------------------| 
----------------------------------------| 
--4-----5-----7-----5-------------------| 
----------------------------------------| 
-----0M----0M----0M----0M---------------| 


----------------------------------------| 
----------------------------------------| 
----------------------------------------| 
--------4-----------5-------------------| 
--5-----2-----3-------------------------| 
--3-----------1--------0M---------------| 


----------------------------------------| 
----------------------------------------| 
----------------------------------------| 
--4-----5-----7-----9-------------------| 
----------------------------------------| 
-----0M----0M----0M----0M---------------| 


----------------------------------------| 
----------------------------------------| 
----------------------------------------| 
--------------------3-------------------| 
--4-----5-----7-------------------------| 
--2-----3-----5--------0M---------------| 


----------------------------------------| 
----------------------------------------| 
----------------------------------------| 
--2-----3-----5-----7-------------------| 
----------------------------------------| 
-----0M----0M----0M----0M---------------| 


----------------------------------------------------------------| 
----------------------------------------------------------------| 
----------------------------------------------------------------| 
----------------------------------------------------------------| 
--5-----------9-----------8-------------------------------------| 
--3-----------7-----------6-----------0M-0M-0M-0M---------------| 


----------------------------------------------------------------| 
----------------------------------------------------------------| 
----------------------------------------------------------------| 
----------------------------------------------------------------| 
--------------------------1M-1M-1M-1M-2M-2M-2M-2M---------------| 
--1M-1M-1M-1M-3M-3M-3M-3M---------------------------------------| 


-------------------------------------------------| 
-------------------------------------------------| 
-------------------------------------------------| 
--------------4-----------7----------------------| 
--------------2-----------5----------------------| 
--3M-3M-3M-3M------------------------------------| 


----------------------------------------| 
----------------------------------------| 
----------------------------------------| 
--5-----4-----5-----7-------------------| 
----------------------------------------| 
-----0M----0M----0M----0M---------------| 


----------------------------------------| 
----------------------------------------| 
----------------------------------------| 
--5-----------4-------------------------| 
--------5-----2-----3-------------------| 
-----0M-3-----------1-------------------| 


----------------------------------------| 
----------------------------------------| 
----------------------------------------| 
--5-----4-----5-----7-------------------| 
----------------------------------------| 
-----0M----0M----0M----0M---------------| 


----------------------------------------| 
----------------------------------------| 
----------------------------------------| 
--9-------------------------------------| 
--------4-----5-----7-------------------| 
-----0M-2-----3-----5-------------------| 


----------------------------------------| 
----------------------------------------| 
----------------------------------------| 
--3-----2-----3-----5-------------------| 
----------------------------------------| 
-----0M----0M----0M----0M---------------| 


----------------------------------------------------------------| 
----------------------------------------------------------------| 
----------------------------------------------------------------| 
--7-----------5-----------3-------------------------------------| 
----------------------------------------------------------------| 
--------0M----------0M----------0M-0M-0M-0M-0M-0M---------------| 


----------------------------------------------------------------| 
----------------------------------------------------------------| 
----------------------------------------------------------------| 
----------------------------------------------------------------| 
--------------------------------------2M-2M-2M-2M---------------| 
--3M-3M-3M-3M-3M-3M-5M-5M-5M-5M-5M-5M---------------------------| 


----------------------------------------------------------------| 
----------------------------------------------------------------| 
----------------------------------------------------------------| 
----------------------------------------------------------------| 
----------------------------------------------------------------| 
--5M-5M-5M-5M-5M-5M-5M-5M-1M-1M-1M-1M-1M-1M-1M-1M---------------| 


----------------------------------------| 
----------------------------------------| 
----------------------------------------| 
--9--9----------------------------------| 
--10-10---------------------------------| 
--------0M-0M-0M-0M-0M-0M---------------| 


----------------------------------------| 
----------------------------------------| 
----------------------------------------| 
--9--9----------------------------------| 
--10-10---------------------------------| 
--------0M-0M-0M-0M-0M-0M---------------| 


----------------------------------------| 
----------------------------------------| 
----------------------------------------| 
--9--9----------------------------------| 
--10-10---------------------------------| 
--------0M-0M-0M-0M-0M-0M---------------| 


----------------------------------------| 
----------------------------------------| 
----------------------------------------| 
--------------9-------------------------| 
--10M9M-10M12M---12M10M9M---------------| 
----------------------------------------| 


----------------------------------------| 
----------------------------------------| 
----------------------------------------| 
--9--9----------------------------------| 
--10-10---------------------------------| 
--------0M-0M-0M-0M-0M-0M---------------| 


----------------------------------------| 
----------------------------------------| 
----------------------------------------| 
--9--9----------------------------------| 
--10-10---------------------------------| 
--------0M-0M-0M-0M-0M-0M---------------| 


----------------------------------------| 
----------------------------------------| 
----------------------------------------| 
--9--9----------------------------------| 
--10-10---------------------------------| 
--------0M-0M-0M-0M-0M-0M---------------| 


----------------------------------------| 
----------------------------------------| 
----------------------------------------| 
-----------------7-----9----------------| 
--4-----4M-5-----5-----7----------------| 
--2--0M-2M-3--0M------------------------| 


----------------------------------------------------------------| 
--13L---------13----12-13-12-13-12----10------------------------| 
----------------------------------------------------------------| 
----------------------------------------------------------------| 
----------------------------------------------------------------| 
----------------------------------------------------------------| 


-------------------| 
--12---------------| 
-------------------| 
-------------------| 
-------------------| 
-------------------| 


----------------------------------------------------------------| 
--13L---------13----12-13-12-13-12----15------------------------| 
----------------------------------------------------------------| 
----------------------------------------------------------------| 
----------------------------------------------------------------| 
----------------------------------------------------------------| 


-------------------| 
--12---------------| 
-------------------| 
-------------------| 
-------------------| 
-------------------| 


----------------------------------------------------------------| 
--13L---------13----12-13-12-13-12----10------------------------| 
----------------------------------------------------------------| 
----------------------------------------------------------------| 
----------------------------------------------------------------| 
----------------------------------------------------------------| 


----------------------------------------------------------------| 
--12L---------12----10-12-10-12-10----9-------------------------| 
----------------------------------------------------------------| 
----------------------------------------------------------------| 
----------------------------------------------------------------| 
----------------------------------------------------------------| 


----------------------------------------------------------------| 
--10L---------10----9--10-9--10-9-----6-------------------------| 
----------------------------------------------------------------| 
----------------------------------------------------------------| 
----------------------------------------------------------------| 
----------------------------------------------------------------| 


----------------------|-------------------|-------------------| 
--9--5----------------|-------------------|-------------------| 
----------------------|-------------------|-------------------| 
----------------------|--9----------------|--9----------------| 
----------------------|--7----------------|--7----------------| 
----------------------|--0----------------|--0----------------| 


-------------------|-------------------|-------------------|-------------------| 
-------------------|-------------------|-------------------|-------------------| 
-------------------|-------------------|-------------------|-------------------| 
--9----------------|--9----------------|-------------------|-------------------| 
--7----------------|--7----------------|-------------------|-------------------| 
--0----------------|--0----------------|-------------------|-------------------| 
		  

See also:

tabs Kreator - Nonconformist tabs Kreator - Under The Guillotine tabs Kreator - Awakening Of The Gods tabs Tankard - G.A.L.O.W. tabs Kreator - Flag Of Hate tabs Kreator - Some Pain Will Last
e-chords

Other versions:

tabs Kreator - Death To The World
auto scroll beats size up size down change color hide chords drawings
tab show chords e-chords YouTube Clip e-chords hide all tabs e-chords go to top tab

share