Kreator

All Of The Same Blood

Kreator

tabs

by  MATRIZARROJITO

save to print version add songbook text version e-mail correct tuner
chordsukulelecavacokeyboardtabbassdrumsharmonicaflute Guitar Pro
close

there isn't a video lesson for this song

chords

All Of The Same Blood

Year: 2001 - Album: Live Kreation

	  		Riff A 
|-------------------------------------------------------------------------| 
|-------------------------------------------------------------------------| 
|-------------------------------------------------------------------------|Gtr I 
|--------------------9--------9-7-------------7--------10-------------10~-| & II 
|-7-777777-10-777777---777777-----10-9-888888---888888----888888-10-8-----| 
|-------------------------------------------------------------------------| 
...... ...... ...... . . . . ...... ...... . ...... . . 
 
|----------------------------------------------------------------------------| 
|----------------------------------------------------------------------------| 
|----------------------------------------------------------------------------| 
|--------------------9--------9-7-------------7----10--------------9------12-| 
|-7-777777-10-777777---777777-----10-9-888888---88----101010101010---1010----| 
|----------------------------------------------------------------------------| 
...... ...... ...... . . . . ...... .. . . . . . . .. 
 
Riff B 
|----------------------------------------------------------------------| 
|----------------------------------------------------------------------|Gtr I 
|----------------------------------------------------------------------| & II 
|-------------------4-------------------------2--------5---------------| 
|-2--------5--------2--------2-------3--------0--------3------------3~-| 
|-0-000000-3-000000---000000---5-3-2-1-111111---111111---111111-3-1----| 
...... ...... ...... . . . . ...... ...... ...... . . 
|--------------------------------------------------------------------| 
|--------------------------------------------------------------------| 
|--------------------------------------------------------------------| 
|-------------------4------------------------------------------------| 
|-2--------5--------2--------2-------3-------------3-5-------------5-| 
|-0-000000-3-000000---000000---5-3-2-1-111111-5-11---3-333333-7-33---| 
...... ...... ...... . . . . ...... .. ...... .. 
 
Riff C (Not sure about this) 
|-----------------------------------------------------------| 
|-----------------------------------------------------------| 
|-----------------------------------------------------------|Gtr I 
|-----------------------------------------------------------|& II 
|-8-------------------8----------5\4---7-8-8----------7-8-8-| 
|-6-66666666666666666-6-66666666-3\2---5-6-6-00000000-5-6-6-| 
................. ........ ........ 
Riff D 
|--------------------------------------------------------------------| 
|--------------------------------------------------------------------|Gtr I 
|--------------------------------------------------------------------| & II 
|-5----------5/7-4----------4----------5----------5/7-4--------------| 
|-3-33333333-3/5-2-22222222-2-22222222-3-33333333-3/5-2-222222-7\5---| 
|--------------------------------------------------------------5\3---| 
........ ........ ........ ........ ...... 
|--------------------------------------------------------------------| 
|--------------------------------------------------------------------| 
|--------------------------------------------------------------------| 
|-5----------5/7-4----------4----------5----------5/7-4--------------| 
|-3-33333333-3/5-2-22222222-2-22222222-3-33333333-3/5-2-222222-7\5\4-| 
|--------------------------------------------------------------5\3\2-| 
........ ........ ........ ........ ...... 
Riff E 
|--------------------------------------|------------------------| 
|--------------------------------------|------------------------| 
|--------------------------------------|------------------------| 
|--------------------------------------|-----------------8-10-7-| 
|--------------------------------------|-----------------8-10-7-| 
|-0000000000002222223333333333332222225|555555555553333336-8--5-| 
....................................^................. 
stop here the last time 
|------| and restart riff B with 
|------|<----------------------|this 
|------| 
|-5----| 
|-5----| 
|-3----| 
 
Riff F 
|------------------------------------------------| 
|------------------------------------------------|Gtr I 
|----9-7------------7----------------------------| 
|-9------10-10/12~----10-7-9~--9-7-5-5/7~--7-5---| 
|-7--------------------------------------------9-| 
|------------------------------------------------| 
 
|------------------------------------------------------------------| 
|------------------------------------------------------------------| 
|---------9-7---------------7--------------------------------------|Gtr II 
|-9--9-10-----10-10/12-9-10---10-7-9~-9-10-9-7-5-5/7~-9-10---------| 
|-7--------------------------------------------------------12-10-9-| 
|------------------------------------------------------------------| 
 
Riff G 
|--------------------| 
|--------------------| 
|-9--10-----7------9-|Gtr I 
|-9--10-----7------9-| 
|-7--8------5------7-| 
|--------------------| 
 
|---------------------------------| 
|---------------------------------| 
|---------7-----------------------| 
|----9-10---10-9----5-7-5-------5-|Gtr II 
|-7~-------------5--------8-7-8---| 
|---------------------------------| 
 
Riff H 
|----------------------------| 
|----------------------------| 
|-7------9------7------5---7-|Gtr I 
|-7------9------7------5---7-| 
|-5------7------5------3---5-| 
|----------------------------| 
 
|--------------------------------------------------------| 
|--------------------------------------------------------| 
 
|--------------------------------------------------------|Gtr II 
|----5-7-5-4-------------------5-7-5-4------2-5-----4-7--| 
|-5~---------5-7~-10-9-7~--/5~---------5-3~------5~------| 
|--------------------------------------------------------| 
 
Riff I 
|------------------| 
|------------------| 
|------5---------4-|Gtr I 
|-2----5----2----4-| 
|-2----3----2----2-| 
|-0---------0------| 
 
|-----------------------------------------------------------------| 
|-----------------------------------------------------------------|Gtr II 
|--------------------------------------------------------------5--| 
|----5-4-5-7-5-4-5~--5-4-5-7-5-4-5~--5-4-5-7-5-4-5~--5-4-5-4-7----| 
|-7~--------------------------------------------------------------| 
|-----------------------------------------------------------------| 
 
Riff J 
|------------------| 
|------------------| 
|-----------5------| 
|-2----5----5----5-|Gtr I 
|-2----5----3----5-| 
|-0----3---------3-| 
 
Riff K 
|--------------------------------------------------------------------| 
|--------------------------------------------------------------------| 
|--------------------------------------------------------------------|Gtr I 
|--------------------------------------------------------------------| 
|-000000000000000000000000000000000000000000000000000000000000000000-| 
|--------------------------------------------------------------------| 
.................................................................. 
|-----------------------------------------| 
|-----------------------------------------| 
|-----------------------------------------|Gtr II 
|-2--10-9-10-12-10-9-10-9-------9---------| 
|-0-----------------------12-10---12-10-8-| 
|-----------------------------------------| 
 
|--------------------------------------------| 
|--------------------------------------------| 
|--------------------------------------------| 
|-2--10-9-10-12-10-9-14-12-10----12-10-------| 
|-0---------------------------14-------14-12-| 
|--------------------------------------------| 
 
Riff L 
|---------------------------------------------------------------| 
|---------------------------------------------------------------| 
|---------------------------------------------------------------|Gtr I 
|---------------------------------------------------------------|& 
|-3--------3--------3--------3/5-7--------7--------7--------7/8-|Gtr II 
|-1-111111-1-111111-1-111111-1/3-5-555555-5-555555-5-555555-5/6-| 
...... ...... ...... ...... ...... ...... 
the last time* 
|-------------------------------------------------------------| 
|-------------------------------------------------------------| 
|-------------------------------------------------------------| 
|-------------------------------------------------------------| 
|-3--------3--------3--------3/5-7--------7--------5--------4-| 
|-1-111111-1-111111-1-111111-1/3-5-555555-5-555555-3-333333-2-| 
...... ...... ...... ...... ...... ...... 
 
Riff M 
|-----------------------------------------------------------------| 
|-----------------------------------------------------------------| 
|-----------------------------------------------------------------|Gtr I 
|-----------------------------------------------------------------| 
|-----7---9---10---9---7---9---10-----7---9---10---9---7---9---10-| 
|-0-0---0---0----0---0---0---0----8-8---8---8----8---8---8---8----| 
. . . . . . . . . . . . . . . . 
|----------------------------------------------------------------------------| 
|----------------------------------------------------------------------------| 
|----------------------------------------------------------------------------| 
|----------------------------------------------------------------------------| 
|-------9----11----12----11----9----11----12-----7---9---10---9---7---9---10-| 
 
|-10-10---10----10----10----10---10----10----0-0---0---0----0---0---0---0----| 
. . . . . . . . . . . . . . . . 
Riff N 
|---------------| 
|---------------| 
|---------------| 
|-2-------------|Gtr I 
|-2-------------|(Only the first time) 
|-0-------------| 
 
|----------------------------------------------------------| 
|----------------------------------------------------------| 
|-------------------------2-------------------3------------|Gtr II 
|-2----3-2----3----3p2h3p5-5p2h3--2----3-2----3----/10-7-9-| 
|-2-----------3-------------------2-----------1----/10-7-9-| 
|-0-----------1-------------------0----------------/8--5-7-| 
 
Riff 0 
|--------------------------| 
|--------------------------| 
|--------5-----------4-----|Gtr I 
|-2------5----2------4--5--| 
|-2------3----2------2--5--| 
|-0----0------0----0----3--| 
. . 
Not sure 
|----12-15-12----12-15-12----12-15-12-------| 
|-13----------13----------13----------13...-| 
|-------------------------------------------| 
|-------------------------------------------|Gtr II 
|-------------------------------------------| 
|-------------------------------------------| 

		  

See also:

tabs Kreator - Nonconformist tabs Kreator - Under The Guillotine tabs Kreator - Awakening Of The Gods tabs Tankard - G.A.L.O.W. tabs Kreator - Flag Of Hate tabs Kreator - Some Pain Will Last
e-chords

Other versions:

tabs Kreator - All Of The Same Blood
auto scroll beats size up size down change color hide chords drawings
tab show chords e-chords YouTube Clip e-chords hide all tabs e-chords go to top tab

share