Kraftklub

Unsere Fans

Kraftklub

tabs

by  MARCNAGEL

save to print version add songbook text version e-mail correct tuner
chordsukulelecavacokeyboardtabbassdrumsharmonicaflute Guitar Pro
close

there isn't a video lesson for this song

chords

Unsere Fans

	  		

Intro  
e|------------------------| 
B|------------------------| 
G|--------7-6-5---7-5-----| 
D|-7-7-7--7-6-5---7-5-5-7-| 
A|-7-7-7--5-4-3---5-3-5-7-| 
E|-5-5-5--------------3-5-| x2 

Chorus 
e|----------------------------------------------------------------------| 
B|----------------------------------------------------------------------| 
G|-------5-7-7-7-6-5-5-5-5-5-5-5-5--10-10-10-10-5-5-5-7-----------------| 
D|-7-7-7-5-7-7-7-6-5-5-5-5-5-5-5-5--10-10-10-10-5-5-5-7-7-7-7-7-7-7-7-7-| 
A|-7-7-7-3-5-5-5-4-3-3-3-3-3-3-3-3?-8--8--8--8--3-3-3-5-7-7-7-7-7-7-7-7-| 
E|-5-5-5------------------------------------------------5-5-5-5-5-5-5-5-| x4 

Verse 
 (00:54)           
e|------------------------| 
B|------------------------| 
G|-------5------------7-6-| 
D|---7--------------5-----| 
A|-----7----------3-------| 
E|-5----------------------| x4 

Chorus 

Verse2 
 (01:43) 
e|---------------------------------| 
B|---------------------6-----------| 
G|------5----------5-7---7-5-7-5---| 
D|-7--7---7-7--------------------7-| 
A|---------------------------------| 
E|---------------------------------| x4 
 Ab 01:53 dazu 
e|------------------------| 
B|------------------------| 
G|--------7-6-5---7-5-----| 
D|-7-7-7--7-6-5---7-5-5-7-| 
A|-7-7-7--5-4-3---5-3-5-7-| 
E|-5-5-5--------------3-5-| x4 
(also quasi zweimal nur das obere, dann zweimal beides, dann zweimal nur das untere) 

Chorus 

Bridge 
 (02:41) 
e|---------------------------------------------------| 
B|---------------------------------------------------| 
G|-------12-11--------10-9---------5-9---------5-5-5-| 
D|-7-7-7-12-11--7-7-7-10-9---7-7-7-5-9---7-7-7-5-5-5-| 
A|-7-7-7-10-9---7-7-7-8--7---7-7-7-3-7---7-7-7-3-3-3-| 
E|-5-5-5--------5-5-5--------5-5-5-------5-5-5-------| x4 
 Ab 02:52 SOLO dazu 
e|--------------------------------------------------| 
B|--------------------------------------------------| 
G|-14-14-14-14-14---14-14-14-14-14------------------| 
D|-----------------------------------13-13-13----14-| 
A|--------------------------------------------15----| 
E|--------------------------------------------------| 

Chorus 

Solo2 
 (03:32) 
e|----12-12----------15-12-12-------|    |-15-12-12-------| 
B|-13-------12-12-------------10-10-|    |----------10-10-| 
G|----------------------------------|    |----------------| 
D|----------------------------------|    |----------------| 
A|----------------------------------|    |----------------| 
E|----------------------------------| x2 |----------------| 

Tab by duncan.wick 
		  

Full key step upFull key step up
Half key step upHalf key step up
Half key step downHalf key step down
Full key step downFull key step down
hide glossary

See also:

tabs J. Cole - No Role Modelz tabs Kraftklub - Unsere Fans tabs Alligatoah - Willst Du tabs Prinz Pi - Laura tabs Kraftklub - Ich Will Nicht Nach Berlin tabs Alligatoah - Trauerfeier Lied
e-chords

Other versions:

tabs Kraftklub - Unsere Fans
auto scroll beats size up size down change color hide chords drawings
tab show chords e-chords YouTube Clip e-chords hide all tabs e-chords go to top tab

share