Kraftklub

Irgendeine Nummer (live)

Kraftklub

tabs

by  CARLLUZ

save to print version add songbook text version e-mail correct tuner
chordsukulelecavacokeyboardtabbassdrumsharmonicaflute Guitar Pro
close

there isn't a video lesson for this song

chords

Irgendeine Nummer (live)

	  		
Intro 
 
D | C | G | A (2x) 

    D       C      G      A 

e|--2-------0------3------0--------------------------------------------------| 
B|--3-------2------3------2--------------------------------------------------| 
G|--2-------3------0------2--------------------------------------------------| 
D|--0-------4------0------2--------------------------------------------------| 
A|----------0------2------0--------------------------------------------------| 
E|-----------------3---------------------------------------------------------| 
           "Hey!"        "Ho!" 


e|---------------------------------------------------------------------------| 
B|---------------------------------------------------------------------------| 
G|------7------------5-------------------------------------------------------| 
D|------7------------5-------------------------------------------------------| 
A|------5------------3-------------------------------------------------------| 
E|---------------------------------------------------------------------------| 
    "Däb, Däb..." "Yeah" 


Verse 

e|---------------------------------------------------------------------------| 
B|---------------------------------------------------------------------------| 
G|----7----------------------------5-----------------------------------------| 
D|----7----------------------------5-----------------------------------------| 
A|----5----------------------------3-----------------------------------------| 
E|---------------------------------------------------------------------------| 
    Felix' Sprechpart (4x)     Am Ende jeder Zeile nach Karl's Gesang(3x) 

Karl's Gitarre 

e|---------------------------------------------------------------------------| 
B|---10-10-10-10-10-10-10-10-9-9-9-9-9-9-9-9-10-10-10-10-10-10-10-10---------| 
G|---------------------------------------------------------------------------| 
D|---------------------------------------------------------------------------| 
A|---------------------------------------------------------------------------| 
E|---------------------------------------------------------------------------| 

e|---------------------------------------------------------------------------| 
B|---13-13-9-9-10------------------------------------------------------------| 
G|---------------------------------------------------------------------------| 
D|---------------------------------------------------------------------------| 
A|---------------------------------------------------------------------------| 
E|---------------------------------------------------------------------------| 


Chorus 

e|---------------------------------------------------------------------------| 
B|---10-10-10-10-10-10-10-10-9-9-9-9-9-9-9-9-10-10-10-10-10-10-10-10---------| 
G|---------------------------------------------------------------------------| 
D|---------------------------------------------------------------------------| 
A|---------------------------------------------------------------------------| 
E|---------------------------------------------------------------------------| 


e|---------------------------------------------------------------------------| 
B|---13-13-9-9-10------------------------------------------------------------| 
G|---------------------------------------------------------------------------| 
D|---------------------------------------------------------------------------| 
A|---------------------------------------------------------------------------| 
E|---------------------------------------------------------------------------| 

     D   C   G   A 
e|---------------------------------------------------------------------------| 
B|---------------------------------------------------------------------------| 
G|---7---5-------------------------------------------------------------------| 
D|---7---5---5---7-----------------------------------------------------------| 
A|---5---3---5---7-----------------------------------------------------------| 
E|-----------3---5-----------------------------------------------------------| 

Jeder Akkord wird jeweils 8x angespielt 



Verse II 

Karl's Solo ab 1:26 

e|--------13-12-13-12-10-12-------13-12-10----13-----------------------------| 
B|-----11----------------------11----------10----9---------------------------| 
G|--12----------------------12-----------------------------------------------| 
D|---------------------------------------------------------------------------| 
A|---------------------------------------------------------------------------| 
E|---------------------------------------------------------------------------| 


Bridge 

Guitar I: 

e|---------------------------------------------------------------------------| 
B|---------------------------------------------------------------------------| 
G|--10-10-9-10-9-10-9-10-9-7-6-----------------------------------------------| 
D|---------------------------------------------------------------------------| 
A|---------------------------------------------------------------------------| 
E|---------------------------------------------------------------------------| 

DANN Akkorde wie im Intro spielen, einmal durchstreichen (D  C, G, A) 

Guitar II: 

e|---------------------------------------------------------------------------| 
B|---------------------------------------------------------------------------| 
G|---7---5-------------------------------------------------------------------| 
D|---7---5---5---7-----------------------------------------------------------| 
A|---5---3---5---7-----------------------------------------------------------| 
E|-----------3---5-----------------------------------------------------------| 

Guitar I: 
e|---------------------------------------------------------------------------| 
B|--10-10-10-10-10-10-10-10-13-13-9-9-10-------------------------------------| 
G|---------------------------------------------------------------------------| 
D|---------------------------------------------------------------------------| 
A|---------------------------------------------------------------------------| 
E|---------------------------------------------------------------------------| 


Chorus 
		  

Full key step upFull key step up
Half key step upHalf key step up
Half key step downHalf key step down
Full key step downFull key step down
hide glossary

See also:

tabs J. Cole - No Role Modelz tabs Kraftklub - Unsere Fans tabs Alligatoah - Willst Du tabs Prinz Pi - Laura tabs Kraftklub - Ich Will Nicht Nach Berlin tabs Alligatoah - Trauerfeier Lied
e-chords

Other versions:

tabs Kraftklub - Irgendeine Nummer (live)
auto scroll beats size up size down change color hide chords drawings
tab show chords e-chords YouTube Clip e-chords hide all tabs e-chords go to top tab

share