Kopecky Family Band

Change

Kopecky Family Band

tabs

by  LINEKERS

save to print version add songbook text version e-mail correct tuner
chordsukulelecavacokeyboardtabbassdrumsharmonicaflute Guitar Pro
close

there isn't a video lesson for this song

chords

Change

	  		

Intro 
e|---------------------------------------------------------------------------|  
B|--------5-----------9-----------5-----------9------------------------------| 
G|------------6-----------6-----------6-----------6--------------------------|  
D|----7-----------7-----------7-----------7----------------------------------| 
A|--0---0---0---0---0---0---0---0---0---0---0---0----------------------------|  
E|---------------------------------------------------------------------------| 

e|---------------------------------------------------------------------------|  
B|--------5-------5-------5-----------9-------9-------9----------------------|  
G|----------------------------6---------------------------6------------------|  
D|----7-------7-------7-----------7-------7-------7--------------------------|  
A|--0---0---0---0---0---0---0---0---0---0---0---0---0---0--------------------|  
E|---------------------------------------------------------------------------| 


     My mother she told me, she knew when she looked in  
e|---------------------------------------------------------------------------|  
B|--------5-----------9-----------5-----------9------------------------------|  
G|------------6-----------6-----------6-----------6--------------------------|  
D|----7-----------7-----------7-----------7----------------------------------|  
A|--0---0---0---0---0---0---0---0---0---0---0---0----------------------------|  
E|---------------------------------------------------------------------------| 

    his eyes 
e|---------------------------------------------------------------------------|  
B|--------5-------5-------5-----------9-------9-------9----------------------|  
G|----------------------------6---------------------------6------------------|  
D|----7-------7-------7-----------7-------7-------7--------------------------|  
A|--0---0---0---0---0---0---0---0---0---0---0---0---0---0--------------------|  
E|---------------------------------------------------------------------------| 

     Both of them traded their love for a moment  
e|---------------------------------------------------------------------------|  
B|--------5-----------9-----------5-----------9------------------------------|  
G|------------6-----------6-----------6-----------6--------------------------|  
D|----7-----------7-----------7-----------7----------------------------------|  
A|--0---0---0---0---0---0---0---0---0---0---0---0----------------------------|  
E|---------------------------------------------------------------------------| 

     in time 
e|---------------------------------------------------------------------------|  
B|--------5-------5-------5-----------9-------9-------9----------------------|  
G|----------------------------6---------------------------6------------------|  
D|----7-------7-------7-----------7-------7-------7--------------------------|  
A|--0---0---0---0---0---0---0---0---0---0---0---0---0---0--------------------|  
E|---------------------------------------------------------------------------| 

     Cause things they change and people lie 
e|---------------------------------------------------------------------------|  
B|---------7-------7-------7-------7-------7-------7-------7-----------------|  
G|-------------------------------------------------------------7-------------|  
D|-----7-------7-------7-------7-------7-------7-------7---------------------|  
A|---0---0---0---0---0---0---0---0---0---0---0---0---0---0---0---------------|  
E|---------------------------------------------------------------------------| 

     I hope that I can sleep tonight 
e|---------------------------------------------------------------------------|  
B|--------7-------7-------7-----------0-------0-------0----------------------|  
G|---------------------------------------------------------------------------|  
D|----7-------7-------7-------7---6-------6-------6-------6------------------|  
A|--9---9---9---9---9---9---9---7---7---7---7---7---7---7--------------------|  
E|---------------------------------------------------------------------------| 

e|---------------------------------------------------------------------------|  
B|--------5-----------9-----------5-----------9------------------------------| 
G|------------6-----------6-----------6-----------6--------------------------|  
D|----7-----------7-----------7-----------7----------------------------------|  
A|--0---0---0---0---0---0---0---0---0---0---0---0----------------------------|  
E|---------------------------------------------------------------------------| 

e|---------------------------------------------------------------------------|  
B|--------5-------5-------5-----------9-------9-------9----------------------|  
G|----------------------------6---------------------------6------------------|  
D|----7-------7-------7-----------7-------7-------7--------------------------|  
A|--0---0---0---0---0---0---0---0---0---0---0---0---0---0--------------------|  
E|---------------------------------------------------------------------------| 

     My sister she told me, she knew when she looked in  
e|---------------------------------------------------------------------------|  
B|--------5-----------9-----------5-----------9------------------------------|  
G|------------6-----------6-----------6-----------6--------------------------|  
D|----7-----------7-----------7-----------7----------------------------------|  
A|--0---0---0---0---0---0---0---0---0---0---0---0----------------------------|  
E|---------------------------------------------------------------------------| 

     his eyes 
e|---------------------------------------------------------------------------|  
B|--------5-------5-------5-----------9-------9-------9----------------------| 
G|----------------------------6---------------------------6------------------|  
D|----7-------7-------7-----------7-------7-------7--------------------------|  
A|--0---0---0---0---0---0---0---0---0---0---0---0---0---0--------------------|  
E|---------------------------------------------------------------------------| 

     All seems to be better now that she felt butter- 
e|---------------------------------------------------------------------------|  
B|--------5-----------9-----------5-----------9------------------------------| 
G|------------6-----------6-----------6-----------6--------------------------|  
D|----7-----------7-----------7-----------7----------------------------------|  
A|--0---0---0---0---0---0---0---0---0---0---0---0----------------------------|  
E|---------------------------------------------------------------------------| 

    -flies 
e|---------------------------------------------------------------------------| 
B|--------5-------5-------5-----------9-------9-------9----------------------|  
G|----------------------------6---------------------------6------------------|  
D|----7-------7-------7-----------7-------7-------7--------------------------|  
A|--0---0---0---0---0---0---0---0---0---0---0---0---0---0--------------------| 
E|---------------------------------------------------------------------------| 
   
     Cause things they change, and people lie 
e|---------------------------------------------------------------------------|  
B|---------7-------7-------7-------7-------7-------7-------7-----------------| 
G|-------------------------------------------------------------7-------------|  
D|-----7-------7-------7-------7-------7-------7-------7---------------------|  
A|---0---0---0---0---0---0---0---0---0---0---0---0---0---0---0---------------|  
E|---------------------------------------------------------------------------| 


     Just tell me that we'll be alright 
e|---------------------------------------------------------------------------|  
B|--------7-------7-------7-----------0-------0-------0----------------------|  
G|---------------------------------------------------------------------------|  
D|----7-------7-------7-------7---6-------6-------6-------6------------------|  
A|--9---9---9---9---9---9---9---7---7---7---7---7---7---7--------------------|  
E|---------------------------------------------------------------------------| 

e|---------------------------------------------------------------------------|  
B|--------5-------5-------5-------5-------5-------5-------5-------5----------|  
G|---------------------------------------------------------------------------|  
D|----7-------7-------7-------7-------7-------7-------7-------7--------------|  
A|--0---0---0---0---0---0---0---0---0---0---0---0---0---0---0---0------------| 
E|---------------------------------------------------------------------------| 
         
        Don't you go 
e|---------------------------------------------------------------------------|  
B|---------10--------10--------10--------10--------10--------10--------10----|  
G|---------------------------------------------------------------------------|  
D|----11--------11--------11--------11--------11--------11--------11---------|  
A|--9----9----9----9----9----9----9----9----9----9----9----9----9----9-------|  
E|---------------------------------------------------------------------------| 
     
     Don't you go and change for me 
e|---------------------------------------------------------------------------| 
B|---------10----------------------------------------------------------------|  
G|---------------------11----------11-------6-------6-------6-------6--------|  
D|----11----------------------------------------------------------------7----|  
A|--9----9-------12----------12---------7-------7-------7-------7------------|  
E|------------10----10----10----10----5---5---5---5---5---5---5---5---5------| 

     Don't you go and change for me 
e|---------------------------------------------------------------------------|  
B|------------------------2-------2-------2-------2-------2-------2----------|  
G|--------7-------7---------------------------------------------------2------|  
D|----9-------9-------4-------4-------4-------4-------4-------4--------------|  
A|--9---9---9---9---4---4---4---4---4---4---4---4---4---4---4---4---4--------|  
E|---------------------------------------------------------------------------| 

     you change for me 
e|---------------------------------------------------------------------------|  
B|---------------------------------------------------------------------------|  
G|---------------------------------------------------------------------------|  
D|-----7---------------------------------------------------------------------| 
A|-----5---------------------------------------------------------------------|  
E|---------------------------------------------------------------------------| 

e|---------------------------------------------------------------------------|  
B|--------5-----------9-----------5-----------9------------------------------|  
G|------------6-----------6-----------6-----------6--------------------------|  
D|----7-----------7-----------7-----------7----------------------------------|  
A|--0---0---0---0---0---0---0---0---0---0---0---0----------------------------|  
E|---------------------------------------------------------------------------| 

e|---------------------------------------------------------------------------|  
B|--------5-------5-------5-----------9-------9-------9----------------------|  
G|----------------------------6---------------------------6------------------|  
D|----7-------7-------7-----------7-------7-------7--------------------------| 
A|--0---0---0---0---0---0---0---0---0---0---0---0---0---0--------------------|  
E|---------------------------------------------------------------------------| 

 
		  

See also:

tabs Maroon 5 - Sweetest Goodbye tabs Stevie Wonder - Sir Duke tabs Kelly Clarkson - You Found Me tabs Black Eyed Peas - My humps/ver.2 tabs Michael Jackson - Billie Jean (Fingerstyle) tabs Collective Soul - Shine
e-chords

Other versions:

tabs Deftones - Change tabs Good Charlotte - Change tabs The Warren Brothers - Change tabs Black Stone Cherry - Change tabs Kopecky Family Band - Change tabs Losing September - Change
auto scroll beats size up size down change color hide chords drawings
tab show chords e-chords YouTube Clip e-chords hide all tabs e-chords go to top tab

share