Koji Kondo

Zelda Tp Trailer - Dont Want You No More

Koji Kondo

tabs

by  FERNSANTANA

save to print version add songbook text version e-mail correct tuner
chordsukulelecavacokeyboardtabbassdrumsharmonicaflute Guitar Pro
close

there isn't a video lesson for this song

chords

Zelda Tp Trailer - Dont Want You No More

	  		
Gtr I (E A D G B E) 

  Q=90 
 4/4 
  Gtr I 
  E E E E E E E E E E E E E E E E E E E E E E E E E E E E E E E E 
|------------------------------------------------------------------| 
|------------------------------------------------------------------| 
|-7---5-----------5---7-8-7---5-----------5------------------------| 
|---5---5-8-5-7-8---5-------5---5-8-5-7-8-----7---8---5-8-7-----7--| 
|-------------------------------------------8---8---5---------7----| 
|-----------------------------------------------------------8------| 


  E E E E E E E E E E E E E E E E E E E E E E E E E E E E E 
|--------------------------------------------------------------| 
|--------------------------------------------------------------| 
|-7---5-----------5---7-8-7---5-----------5--------------------| 
|---5---5-8-5-7-8---5-------5---5-8-5-7-8-----7---5---8-7-5----| 
|-------------------------------------------8---8---5----------| 
|--------------------------------------------------------------| 


  E E E E E H   S S S S E E H.  E E H  S S S S E E H. E E H  Q  E 
|-----------------------------------------------------------------| 
|--------------------------------------------6------------------6-| 
|-----5-7-------------5-7---8---5----------5---8---7--7------4----| 
|-7-8-------5---5-7-8--------------------7----------------5-------| 
|-----------------------------------8--8--------------------------| 
|-----------------------------------------------------------------| 


  Q E E E E E E E E Q.     E S S S S H.   E E   Q  Q  Q  Q 
|------------------------|---------5----------|---------------| 
|-6-5-------5-6-8---5----|-5-----5---8----7-5-|----------5----| 
|-----7-5-7--------------|-----6--------------|-------5-------| 
|------------------------|---7----------------|-4--7----------| 
|------------------------|--------------------|---------------| 
|------------------------|--------------------|---------------| 


  S S S S S S S S S S S S S S S S S S S S S T T T T  Q 
|-------------------------------------5-------5-6-8-10----| 
|-----------------------------------7---8-7-8-------------| 
|-------------5-------5-7-8-7-5-7-8-----------------------| 
|-7-5-4-5-7-8---8-7-8-------------------------------------| 
|---------------------------------------------------------| 
|---------------------------------------------------------| 


  E Q  Q  Q  E E Q  Q S Q  E E Q  Q  Q  E E E E E E E E 
|----------------------------------------------------------| 
|----------------------------------------------------------| 
|----------------------------------------------------------| 
|---5--4---------5--4-5-7------5--7---------5-7-8-----7----| 
|---------5--------------------------5------------5-7------| 
|-3------------3-------------3------------3----------------| 


  E E H  S S S S Q.  S S Q  E E Q.  S S Q  E E E Q.  S S H 
|-------------------------------------------------------------| 
|------------------------------------------------6---8-6-5----| 
|--------------------4-5-4----4-7---5-4-5------5--------------| 
|-7------------5-7---------------------------7----------------| 
|----------6-8--------------7--------------7------------------| 
|-----5-------------------------------------------------------| 


  S S S S S S S S S S S S S S S S S S S S S S S S S S S S S S S 
|-------------------------------------------5-----5-6---5-6-8-5----| 
|-------------------------------5-7-8-5-7-8---7-8-----8------------| 
|---------------------------5--------------------------------------| 
|-4-5---4-5-7-4-5-7-8-5-7-8---7------------------------------------| 
|-----6------------------------------------------------------------| 
|------------------------------------------------------------------| 


  S S E S S E S S E S S E 
|----------------------------| 
|-------------7-7---7-7------| 
|-4-4---4-4------------------| 
|----------------------------| 
|----------------------------| 
|----------------------------| 


  Q.  E Q.   S S Q.  E Q.   S S Q  Q  Q  Q  H    H    E 
|-------------------------------------------5------------| 
|-------------------------------------8--6-------8-------| 
|-----5--------------5-------------5---------------------| 
|-7-----5------5-7-----5------5-7------------------------| 
|------------8--------------8----------------------------| 
|--------------------------------------------------------| 


  E Q  S S E Q  E   E Q  S S E E E E 
|-----------------|------------------|----| 
|-----------------|--------------7---|----| 
|-----------------|------6---6-9-----|----| 
|---9--7-6-7------|---9----7---------|----| 
|-7----------9----|-7----------------|----| 
|-----------------|------------------|----| 


  E Q  S S E Q  E E Q  S S E    E  E 
|---7--5-4-5--------7--9-5-9-|-11-14----| 
|------------7---------------|----------| 
|-9---------------9----------|----------| 
|----------------------------|----------| 
|----------------------------|----------| 
|----------------------------|----------| 


  T S T S T T. T S T S T T T S T S T T T T. T T T. T. E E   H. 
|-----------------------------------------------------------------| 
|-----------------------------------------------------------------| 
|-----------------------------------------------------------------| 
|-7---7---7-7--7---7---7-7-7---7---7-7-7-7--7-7-7--7--7-----------| 
|-----------------------------------------------------------------| 
|-----------------------------------------------------------0-----| 
 
		  

Full key step upFull key step up
Half key step upHalf key step up
Half key step downHalf key step down
Full key step downFull key step down
hide glossary

See also:

tabs Koji Kondo - Ballad Of The Goddess tabs Koji Kondo - Dire Dire Docks tabs Yasuharu Takanashi - Naruto - Despair tabs Zelda - Temple Of Time Theme Oot tabs K-On - Fuwa Fuwa Time tabs Zelda - Canção Da Zelda
e-chords

Other versions:

tabs Koji Kondo - Zelda Tp Trailer - Dont Want You No More
auto scroll beats size up size down change color hide chords drawings
tab show chords e-chords YouTube Clip e-chords hide all tabs e-chords go to top tab

share