Koji Kondo

The Song Of Time

Koji Kondo

tabs

by  FERNSANTANA

save to print version add songbook text version e-mail correct tuner
chordsukulelecavacokeyboardtabbassdrumsharmonicaflute Guitar Pro
close

there isn't a video lesson for this song

chords

The Song Of Time

	  		 
   q h  q q h  q e e q q e e e h e e w 
e|-----------------------------------------| 
B|------------------1-0--------------------| 
G|--2------2------2-----0---0-2------------| 
D|----0--3---0--3---------3-----0---2-0----| 
A|--------------------------------3--------| 
E|-----------------------------------------| 

    e e  q  q e  e  h    e e q  q e  e  h  
e|-----------------------------------------| 
B|-----------------------------------------| 
G|-----------------------------------0-----| 
D|--0----2----2--3--0----0---2----3-----0--| 
A|----3-----3--------------3----3----------| 
E|-----------------------------------------| 

    e  e  q  q  e  e  h    e  e  q  q  e  e  w 
e|----------------------------------------------| 
B|-----1--0--1-----1----------------------------| 
G|--2-----------2-----0----0-----2--------------| 
D|----------------------------3-----0-----2--0--| 
A|-------------------------------------3--------| 
E|----------------------------------------------| 

Rhythm: 
  w = whole note            W = dotted whole 
  h = half note             H = dotted half 
  q = quarter note          Q = dotted quarter 
  e = eighth note           E = dotted eighth 
  s = sixteenth note        S = dotted sixteenth 
  t = 32nd note             T = dotted 32nd 
  x = 64th note             X = dotted 64th 
  ^ = triplet 
		  

See also:

tabs Sword Art Online - A Tender Feeling tabs K-On - Dont Say Lazy tabs Yasuharu Takanashi - Past Story tabs Zelda - Phantom Hourglass - Linebeck's Theme tabs Maximum The Hormone - Alien tabs Maximum The Hormone - Whats Up People
e-chords

Other versions:

tabs Koji Kondo - The Song Of Time
auto scroll beats size up size down change color hide chords drawings
tab show chords e-chords YouTube Clip e-chords hide all tabs e-chords go to top tab

share