Koji Kondo

Song Of Healing

Koji Kondo

tabs

by  SABRJOAO

save to print version add songbook text version e-mail correct tuner
chordsukulelecavacokeyboardtabbassdrumsharmonicaflute Guitar Pro
close

there isn't a video lesson for this song

chords

Song Of Healing

	  		Here is an acoustic version of the Song of Healing from The Legend of Zelda: Majora's Mask. 
I learned this by ear, so it probably can be improved on. 
But I think it's a good version to play; nonetheless. 
Hope you enjoy it. 


Song of Healing Tab 

Intro 
 Let Ring - - - - - - - - - - - - - - - - - - - - - - - -  - - -| Repeat 2X 
e|------------------------------------------------------------------------| 
B|------------------------------------------------------------------------| 
G|--4-----2-----------4-----2-----------4-----2---------------------------|* 
D|--------------3-----------------3-----------------2--0--2---------------|* 
A|-----3-----3-----3-----3-----3-----3-----3-----3-----------2----2----2--| 
E|------------------------------------------------------------------------| 

verse 
 Let Ring - - - - - - - - - - - - - - - - - - - - - - - - - - - - - - - - | 
e|------------------------------------------------------------------------| 
B|------------------------------------------------------------------------| 
G|------------------------------------------------------------------------| 
D|--3-----------------3-----------------3-----2---------------------------| 
A|--------3-----2-----------3-----2-----------------2--0--2---------------| 
E|-----1-----1-----1-----1-----1-----1-----1-----1-----------0----0----0--| 

 Let Ring - - - - - - - - - - - - - - - - - - - - - - - - - - - - - - - - | 
e|------------------------------------------------------------------------| 
B|------------------------------------------------------------------------| 
G|--------------------------------------------------4---------------------| 
D|--3-----------------3-----------------3-----2-----5-----5~--------------| 
A|--------3-----2-----------3-----2--------------------5--7~--------------| 
E|-----1-----1-----1-----1-----1-----1-----1-----1-------(7)--------------| 

(Raising the volume of strumming to the middle, then lower volume near end) 
 Let Ring - - - - - - - - - - - - - - - - - - - - - - - - - - - - - - - - | 
e|------------------------------------------------------------------------| 
B|------------------------------------------------------------------------| 
G|----------------------7-----7---------7~--------------------------------| 
D|--7-------7-----7-----8-----8---------8~--------------------------------| 
A|--8-------8-----8--------8-------8--------------------------------------| 
E|------8------8-----8----------------------------------------------------| 

 Let Ring - - - - - - - - - - - - - - - - - - - - - - - - - - - - - - - - | 
e|------------------------------------------------------------------------| 
B|------------------------------------------------------------------------| 
G|----------------------5-------------------------------------------------| 
D|--5-------5-----5-----7-----5~------------------------------------------| 
A|--7-------7-----7--------7--7~-----------------7~-----------------------| 
E|------7------7-----7-----------------7~---------------------------------| 

 Let Ring - - - - - - - - - - - - - - - - - - - - - - - - - - - - - - - - | 
e|------------------------------------------------------------------------| 
B|------------------------------------------------------------------------| 
G|--------------------3-----3-----3-----------------2---------------------| 
D|--3-----3-----3-----5-----5-----5-----2-----0-----3-----2-----------(2)-| 
A|--5-----5-----5--------5-----5-----5--3-----1--------3--3--(3)----------| 
E|-----5-----5-----5-----------------------3-----3---------------(3)------| 

 Let Ring - - - - - - - - - - - - - - - - - - - - - - - - - - - - - - - - | 
e|------------------------------------------------------------------------| 
B|------------------------------------------------------------------------| 
G|----------------------7-----7---------7~--------------------------------| 
D|--7-------7-----7-----8-----8---------8~--------------------------------| 
A|--8-------8-----8--------8-------8--------------------------------------| 
E|------8------8-----8----------------------------------------------------| 

 Let Ring - - - - - - - - - - - - - - - - - - - - - - - - - - - - - - - - | 
e|------------------------------------------------------------------------| 
B|------------------------------------------------------------------------| 
G|----------------------5-------------------------------------------------| 
D|--5-------5-----5-----7-----5~------------------------------------------| 
A|--7-------7-----7--------7--7~-----------------7~-----------------------| 
E|------7------7-----7-----------------7~---------------------------------| 


 Let Ring - - - - - - - - - - - - - - - - - - - - - - - - - - - - - - - - | 
e|------------------------------------------------------------------------| 
B|------------------------------------------------------------------------| 
G|--------------------3-----5-----7-----2-----3-------7-------------------| 
D|--3-----5-----7-----5-----7-----8-----3-----5-------8-------------------| 
A|--5-----7-----8--------5-----7-----8-----3-----5-----------8------------| 
E|-----5-----7-----8------------------------------------------------------| 

 Let Ring - - - - - - - - - - - - - - - - - - - - - - - - - - - - - - - - | 
e|------------------------------------------------------------------------| 
B|--5~----------------------------------------5~--------------------------| 
G|--4~----------------------4~--------------------------------------------| 
D|--2~----------------------------2~--------------------------------------| 
A|------------------------------------------------------------------------| 
E|------------------------------------------------------------------------| 

 Let Ring - - - - - - - - - - - - - - - - - - - - - - - - - - - - - - - - | 
e|--------------------------------------------------------------------0~--| 
B|--------------------------------------------------------------------0~--| 
G|--4-----2-----------4-----2-----------4---------2---------2----0----0~--| 
D|--------------3-----------------3-----------------------------------2~--| 
A|-----3-----3-----3-----3-----3-----3-------3---------3--------------3~--| 
E|------------------------------------------------------------------------| 
		  

See also:

tabs Koji Kondo - Ballad Of The Goddess tabs Koji Kondo - Dire Dire Docks tabs Yasuharu Takanashi - Naruto - Despair tabs Zelda - Temple Of Time Theme Oot tabs K-On - Fuwa Fuwa Time tabs Zelda - Canção Da Zelda
e-chords

Other versions:

tabs Koji Kondo - Song Of Healing
auto scroll beats size up size down change color hide chords drawings
tab show chords e-chords YouTube Clip e-chords hide all tabs e-chords go to top tab

share