Koji Kondo

Pokemon red and blue final battle

Koji Kondo

tabs Beginner beginner

by  MAXIMUSHYRULE

save to print version add songbook text version e-mail correct tuner
chordsukulelecavacokeyboardtabbassdrumsharmonicaflute Guitar Pro
close

there isn't a video lesson for this song

chords

Pokemon red and blue final battle

	  		 
 
 
 
intro         that's 12 13 15 
 
|--1212--1313--1515--1313 
|------------------------ 
|------------------------ 
|------------------------ 
|------------------------ 
|------------------------ 
 
 
this part is extremly fast 
 
|19-19-19-19-16-16-16-16-20-20-20-20-19-19-19-19-15-15-15-15-21-21-21-21 
|----------------------------------------------------------------------- 
|----------------------------------------------------------------------- 
|----------------------------------------------------------------------- 
|----------------------------------------------------------------------- 
|----------------------------------------------------------------------- 
 
 
 
 
Chorus: 
 
 
|---------------------- 
|---------------------- 
|--5---4---2---1---0--1 
|--5---4---2---1---0--1 
|---------------------- 
|---------------------- 
 
|---- 
|---- 
|1--3   let ring 
|---- 
|---- 
|---- 
 
 
 
 
|---------------------------------- 
|---------------------------------- 
|---------------------------------- 
|---------------------------------- 
|12--------13-------15-------------       x2 
|-----10-------11--------10-----5-4 
 
                                                                         this part is fast 
                                                                           7 8 11                      
|--8--9--10-----------------11--12--13--------------16-17-18-------------------------7811 
|------------------------------------------------------------------------------- 
|------------------------------------------------------------------------------- 
|------------------------------------------------------------------------------- 
|------------------------------------------------------------------------------- 
|--------------9-9-0-9--------------------9-9-0-9---------------9-9-0-9--9-9-0-9 
 
bridge: 
 
|16-------19---------14 
|---------------------- 
|---------------------- 
|---------------------- 
|---------------------- 
|---------------------- 
 
 
|----------------------------- 
|----------------------------- 
|18--16--13--11--13--11--13--8 
|----------------------------- 
|----------------------------- 
|----------------------------- 
 
then the Chorus 
 
 
 
 

		  

See also:

tabs Sword Art Online - A Tender Feeling tabs K-On - Dont Say Lazy tabs Yasuharu Takanashi - Past Story tabs Zelda - Phantom Hourglass - Linebeck's Theme tabs Maximum The Hormone - Alien tabs Maximum The Hormone - Whats Up People
e-chords

Other versions:

tabs Koji Kondo - Pokemon red and blue final battle
auto scroll beats size up size down change color hide chords drawings
tab show chords e-chords YouTube Clip e-chords hide all tabs e-chords go to top tab

share