Koji Kondo

Ballad Of The Goddess Milk Bar

Koji Kondo

tabs

by  RENEJUNIOR

save to print version add songbook text version e-mail correct tuner
chordsukulelecavacokeyboardtabbassdrumsharmonicaflute Guitar Pro
close

there isn't a video lesson for this song

chords

Ballad Of The Goddess Milk Bar

	  		
  (Dm) (C)     (F)   (G)   (Bb)(C)   (Bb)    (C) 
e|-------------------------------------------------| 
B|-------------------------------------------------| 
G|-------------5-7---------------------------------| 
D|---------5---------5---------5-------------5-----| 
A|-5---7-8-------------7---5-----7---5---5-----7---| 
E|-------------------------------------8-----------| 

  (Dm) (C)     (F)   (G)   (Bb)(C)   (Bb)    (C) 
e|-------------8-10--------------------------------| 
B|---------8---------8---------8-------------8-----| 
G|-7---9-10------------9---7-----9---7---7-----9---| 
D|------------------------------------10-----------| 
A|-------------------------------------------------| 
E|-------------------------------------------------| 

  (F)        (Dm)   (C)   (Am)  (G)  (F)  (G) 
e|-------------------------------------------------| 
B|-10--10-8-6--6------8----------------------------| 
G|---------------9--7----9-----7-7-9---------------| 
D|-------------------------10--------9-7-----------| 
A|-------------------------------------------------| 
E|-------------------------------------------------| 

  (Dm) (C)        (Bm)   (C)   (F)                (G)    (A) 
e|-17--17-15-13--13-12-----15--12----------------------------| 
B|----------------------15--------13--15-15-17---------------| 
G|---------------------------------------------16-14---------| 
D|-----------------------------------------------------------| 
A|-----------------------------------------------------------| 
E|-----------------------------------------------------------| 

And that is basically all the parts, oh and the outro are D chords with 
maybe the following at the end: 
  (D) 
e|----------------------| 
B|----------------------| 
G|-----------5-7--7-----| 
D|--------5-------7-----| 
A|-5--7-8---------5-----| 
E|----------------------| 
		  

Full key step upFull key step up
Half key step upHalf key step up
Half key step downHalf key step down
Full key step downFull key step down
hide glossary

See also:

tabs Sword Art Online - A Tender Feeling tabs K-On - Dont Say Lazy tabs Yasuharu Takanashi - Past Story tabs Zelda - Phantom Hourglass - Linebeck's Theme tabs Maximum The Hormone - Alien tabs Maximum The Hormone - Whats Up People
e-chords

Other versions:

tabs Koji Kondo - Ballad Of The Goddess Milk Bar
auto scroll beats size up size down change color hide chords drawings
tab show chords e-chords YouTube Clip e-chords hide all tabs e-chords go to top tab

share