Kleber Lucas

home > Kleber Lucas

Pra valer a pena (V.4) Tab

Kleber Lucas

Difficulty: ExpertExpert

by Mauricio%5F19

tuner correct add songbook print version text version save to e-mail
chordsukulelecavacokeyboardtabbassdrumsharmonicsflute Guitar Pro
chords

Pra valer a pena (V.4)

  		 
INTRO: 
 
E|--------------------------------------------------------| 
B|--------------------------------------------------------| 
G|--------------------------------------------------------| 
D|--------------------------------------------------------| 
A|------7-9-10-7/3-3-3-3-3-3-3-5/7-5~--3-0-3/5-5-3-2-0----| 
E|-12/0-----------------------------------------------3-0-| 
 
E|----------------------------------------------------------| 
B|----------------------------------------------------------| 
G|----------------------------------------------------------| 
D|-9-9--9-11-12--5--5--5--5--7/9--7---5-2-5/7-7-5-4-2-5/7-5-| 
A|-7-7--7-9--10--3--3--3--3--5/7--5---3-0-3/5-5-3-2-0-3/5-3-| 
E|----------------------------------------------------------| 
 
 
Solo de guitarra: 
                          
E|-5h8p5---T---5h8p5---T-----5h8p5---T----5h8p5---T-----| 
B|---------8p5---------8p5-----------8p5----------8p5---| 
G|------------------------------------------------------| 
D|------------------------------------------------------| 
A|------------------------------------------------------| 
E|------------------------------------------------------| 
 
E|--7h10p7---T-----7h10p7--T-----7h10p7--T-----7h10p7--T----| 
B|-----------10p7----------10p7----------10p7----------10p7-| 
G|----------------------------------------------------------| 
D|----------------------------------------------------------| 
A|----------------------------------------------------------| 
E|----------------------------------------------------------| 
 
E|-17~-17b19-17b19~~~-| 
B|--------------------| 
G|--------------------| 
D|--------------------| 
A|--------------------| 
E|--------------------| 
 
__________________________________________________________ 
Colaboração: Mauricio J. Frigo - [email protected] 

	  

Search Paypal
auto scroll beats size up size down change color hide chords drawings
tab show chords e-chords YouTube Clip e-chords hide all tabs e-chords go to top tab