Kleber Lucas

home > Kleber Lucas

Pra Valer A Pena Tab

Kleber Lucas

Difficulty: AdvancedAdvanced

by iva%2E%2E%2E

tuner correct add songbook print version text version save to e-mail
chordsukulelecavacokeyboardtabbassdrumsharmonicsflute Guitar Pro
chords

Pra Valer A Pena

Year: 2003 - Album: Pra Valer A Pena

  		Álbum: Pra valer a pena

SOLO NA INTRODUÇÃO

E-12/0-0---------------------------------------------------5-3-0------
A--------------3-3-3-3-3-3-3-3-5/7-5-5-5-5--5-3-5--5-3-3-2------------
D--------0-2-5--------------------------------------------------------
G---------------------------------------------------------------------
B---------------------------------------------------------------------
e---------------------------------------------------------------------


E------0---------------------------------------------------5-3-0------
A--------------3-3-3-3-3-3-3-3-5/7-5-5-5-5--5-3-5--5-3-3-2------------
D--------0-2-5--------------------------------------------------------
G---------------------------------------------------------------------
B---------------------------------------------------------------------
e---------------------------------------------------------------------
	  

Search Paypal
auto scroll beats size up size down change color hide chords drawings
tab show chords e-chords YouTube Clip e-chords hide all tabs e-chords go to top tab