Kleber Lucas

home > Kleber Lucas

Como ele nos amou Tab

Kleber Lucas

Difficulty: ExpertExpert

by Mauricio%5F19

tuner correct add songbook print version text version save to e-mail
chordsukulelecavacokeyboardtabbassdrumsharmonicsflute Guitar Pro
chords

Como ele nos amou

Year: 2005 - Album: Casa de Davi Casa de Oracão

  		 
INTRO: 
 
E|-----------13------------------------------| 
B|-15~--13-15--15-13-------------------------| 
G|----14------------14~-12p10h12-12/14-12----|  2x 
D|---------------------------------------12~-| 
A|-------------------------------------------| 
E|-------------------------------------------| 
 
Solo: 
 
E|-11-13-14~-14/16-16/18-18b19-18-16-14-14/16-| 
B|--------------------------------------------| 
G|--------------------------------------------| 
D|--------------------------------------------| 
A|--------------------------------------------| 
E|--------------------------------------------| 
 
 
E|----------------------------------------------| 
B|-16-16p14--14/16--14~-11-9~---------13b15~~~~-| 
G|---------15-----------------11p10h11----------| 
D|----------------------------------------------| 
A|----------------------------------------------| 
E|----------------------------------------------| 
 
 
__________________________________________________________ 
Colaboração: Mauricio J. Frigo - [email protected] 

	  

Search Paypal
auto scroll beats size up size down change color hide chords drawings
tab show chords e-chords YouTube Clip e-chords hide all tabs e-chords go to top tab