Kleber Lucas

home > Kleber Lucas

Arrebatados (solo) Tab

Kleber Lucas

Difficulty: AdvancedAdvanced

by Mauricio%5F19

tuner correct add songbook print version text version save to e-mail
chordsukulelecavacokeyboardtabbassdrumsharmonicsflute Guitar Pro
chords

Arrebatados (solo)

  		 
SOLO: 
 
E|-------------------------------------------| 
B|-12b14~-14-14-14-14-14~~~--10h12p10--------| 
G|-----------------------------------11~-----| 
D|-------------------------------------------| 
A|-------------------------------------------| 
E|-------------------------------------------| 
 
E|------------------------------------------| 
B|-------------7-7-10-7-7-7-10--12b14-12b14-| 
G|-6~-9b11~~~--6-6-6--6-6-6-6---------------| 
D|------------------------------------------| 
A|------------------------------------------| 
E|------------------------------------------| 
 
E|----------------------------------------------| 
B|-10-9-------------------------7-7-10-7-7-7-10-| 
G|-----11-9-------------9-11-9--6-6-6--6-6-6-6--| 
D|---------12-11-9-11-12------------------------| 
A|----------------------------------------------| 
E|----------------------------------------------| 
 
E|--------------------------------------------| 
B|-7------------------------------------------| 
G|--9-7-6---------6-9-6-7~-6h7/9-7h9/11-------| 
D|-------9-7-6-7-9----------------------------| 
A|--------------------------------------------| 
E|--------------------------------------------| 
 
E|---------------------------------------------------------| 
B|---------------------------------------------------------| 
G|-11-9/7-9-7/6-7-6/4~-4/7~-6h7/9~-7-9-11-9-11-13-11-13-14-| 
D|---------------------------------------------------------| 
A|---------------------------------------------------------| 
E|---------------------------------------------------------| 
 
E|------------------------------------------------| 
B|---------14-15-17b19-17b19~~--------------------| 
G|-13-14-16---------------------------------------| 
D|------------------------------------------------| 
A|------------------------------------------------| 
E|------------------------------------------------| 
 
 
___________________________________________________________ 
Colaboração: Mauricio J. Frigo - [email protected] 

	  

Search Paypal
auto scroll beats size up size down change color hide chords drawings
tab show chords e-chords YouTube Clip e-chords hide all tabs e-chords go to top tab