Kings Of Convenience

Singing Softly To Me

Kings Of Convenience

tabs Beginner beginner

by  EUROPEU

save to print version add songbook text version e-mail correct tuner
chordsukulelecavacokeyboardtabbassdrumsharmonicaflute Guitar Pro
close

there isn't a video lesson for this song

chords

Singing Softly To Me

	  		E|------------------------------||-2-||-------| 
H|--2x-2x--2x-2x--4x--4x-4x--4x-||-2-||-------| 
G|--3x-3x--3x-3x--4x--4x-4x--4x-||-0-||-------| 
D|--4x-4x--4x-4x-(2)-2--(2)-2---||-1-||-------| 
A|----2------2---4------4-------||---||-------| 
E|-4------4---------------------||---||-0-2-4-| 

                             And now..  
E|----------------------2-2||-2---2---||--------| 
H|--2--2--4--4--4--4--4-2-2||-2-4-2-4-||--------| 
G|--3--3--4--4--4--4--4-0-0||-0-4-0-4-||--------| 
D|--4--4--2--2--2-22--2-1-1||-1-2-1-2-||--------| 
A|----2-----4--------------||---------||-04-2-1-| 
E|-4-----2-----0-----0-----||---------||--------|
		  

See also:

tabs Jarle Bernhoft - Fly Away (live) tabs A-Ha - Analogue (All I Want) tabs Kings Of Convenience - Toxic Girl tabs Tennis - Cape Dory tabs Kings Of Convenience - Love is no big truth tabs Tennis - Pigeon
e-chords

Other versions:

tabs Kings Of Convenience - Singing Softly To Me
auto scroll beats size up size down change color hide chords drawings
tab show chords e-chords YouTube Clip e-chords hide all tabs e-chords go to top tab

share