KillSwitch Engage

Eye Of The Storm

KillSwitch Engage

tabs

by  EDSOOLIVEIRA

save to print version add songbook text version e-mail correct tuner
chordsukulelecavacokeyboardtabbassdrumsharmonicaflute Guitar Pro
close

there isn't a video lesson for this song

chords

Eye Of The Storm

	  		
Drop C Tuning 



Intro 

Gtr I: 
 
|-----------------------------------------------------| 
|-----------------------------------------------------| 
|-----------------------------------------------------| 
|Slide-----------------------------------0~-----------| 
|////////--0----0----0----0----0--0------0~-----------| 
|////////--0----0----0----0----0--0------0~-----------| 
           .    .    .    .    .  . 



Gtr II: 
 
|-----------------------------------------------------| 
|-----------------------------------------------------| 
|-----------------------------------------------------| 
|------------3h5--------------------------------------| 
|---3h5---------------3h5----5h6------3h5------1h3----| 
|-------0000-----0000-----00-----0000-----0000--------| 

pm      ....     ....     ..     ....     .... 

 
|-----------------------------------------------------| 
|-----------------------------------------------------| 
|-----------------------------------------x-----------| 
|------------3h5--------------------------x--0-0-0----| 
|---3h5---------------3h5----5h6----------x--0-0-0----| 
|-------0000-----0000-----00-----0-0-0-0-----0-0-0----| 


Verse I: 

Both Gtrs 06 seconds 
x2 
 
|-----------------------------------------------------| 
|-----------------------------------------------------| 
|-----------------------------------------------------| 
|------------3h5--------------------------------------| 
|---3h5---------------3h5----5h6------3h5------1h3----| 
|-------0000-----0000-----00-----0000-----0000--------| 

pm      ....     ....     ..     ....     .... 

 
|-----------------------------------------------------| 
|-----------------------------------------------------| 
|-----------------------------------------x-----------| 
|------------3h5--------------------------x--0-0-0----| 
|---3h5---------------3h5----5h6----------x--0-0-0----| 
|-------0000-----0000-----00-----0-0-0-0-----0-0-0----| 
        ....     ....     ..     . . . .     . . . 


x4 18 seconds 
 
|-------------------------------------------------------| 
|-------------------------------------------------------| 
|-------------------------------------------------------| 
|-10/////////----------10////////-------------12//////--| 
|-8//////////-----0-0--8/////////---0-0-0-0-0-10//////--| 
|-8//////////-----0-0--8/////////---0-0-0-0-0-10//////--| 


The 2nd guitar comes in with something on the last 2 times i couldnt work it out so if  
else knows it.. feel free to add it in etc 

Chorus 57 seconds 

GtrI:                                                  x2 
 
|------------------------------|--------------------|-8------| 
|---------------------------------------------------|----6---| 
|---------------------------------------------------|-------9| 
|-3-----5-----7-----5------3-5-7--0-----------------|--------| 
|---0-0---0-0---0-0---0--0--------0--0-0-0-0-0-0-0-0|--------| 
|---0-0---0-0---0-0---0--0-----|--0--0-0-0-0-0-0-0-0|--------| 


GtrII: 

 
|-------------------------------|-------------------|----------------------------| 
|---------------------------------------------------|----------------------------| 
|---------------------------------------------------|----------------------------| 
|---------------------------------0-----------------|-3--3--3---5-5-5-5-5-5-5-5-5| 
|-5-0-0--7-0-0-8-0-0-7-0-0-5-7-8--0--0-0-0-0-0-0-0-0|-1--1--1---3-3-3-3-3-3-3-3-3| 
|---0-0----0-0---0-0---0-0------|-0--0-0-0-0-0-0-0-0|---0--0--0----0-0-0---------| 


Verse II: 

Both Gtrs 

x4 
 
|-------------------------------------------------------| 
|-------------------------------------------------------| 
|-------------------------------------------------------| 
|-10/////////----------10////////-------------12//////--| 
|-8//////////-----0-0--8/////////---0-0-0-0-0-10//////--| 
|-8//////////-----0-0--8/////////---0-0-0-0-0-10//////--| 


Chorus 

GtrI:                                                  x2 
 
|------------------------------|--------------------|-8------| 
|---------------------------------------------------|----6---| 
|---------------------------------------------------|-------9| 
|-3-----5-----7-----5------3-5-7--0-----------------|--------| 
|---0-0---0-0---0-0---0--0--------0--0-0-0-0-0-0-0-0|--------| 
|---0-0---0-0---0-0---0--0-----|--0--0-0-0-0-0-0-0-0|--------| 


GtrII: 

 
|-------------------------------|-------------------|--------------------| 
|---------------------------------------------------|--------------------| 
|---------------------------------------------------|--------------------| 
|---------------------------------0-----------------|-3--3--3---5-5-5-5-5| 
|-5-0-0--7-0-0-8-0-0-7-0-0-5-7-8--0--0-0-0-0-0-0-0-0|-1--1--1---3-3-3-3-3| 
|---0-0----0-0---0-0---0-0------|-0--0-0-0-0-0-0-0-0|---0--0--0----------| 



Breakdown: 

Both Gtrs: 
 
                    Drums and Bass Play Alone 
|-----------------------------------------------------| 
|-----------------------------------------------------| 
|-----------------------------------------------------| 
|0~---------------------------------------------------| 
|0~---------------------------------------------------| 
|0~---------------------------------------------------| 


 
         Harmonic played quick, you can barely hear it 
|-----------------------------5----------------------| 
|-----------------------------5----------------------| 
|---Pickscrape----------------5----------------------| 
|-////////////---------------------------------------| 
|-////////////---------------------------------------| 
|-////////////---------------------------------------| 



Both Gtrs x2 
 
|------------------------------------------------------------------------| 
|------------------------------------------------------------------------| 
|------------------5/7--------------------------5/7----------------------| 
|----5/7-----3/5---3/5---7/8--------------5/7---3/5---7/8---3/5----------| 
|-0--3/5--0--1/3-0-----0-5/6--0-0-0-0---0-3/5-0-----0-5/6-0-1/3---0-0-0-0| 
|-0-------0------0-----0------0-0-0-0---0-----0-----0-----0-------0-0-0-0| 


3rd + 4th times Gtr II plays... all palmuted 
 
|---------------------------------------------------------------------------| 
|---------------------------------------------------------------------------| 
|---------------------------------------------------------------------------| 
|-0-0-0-0-0-0-0-0-0-0-0-0-0-0-0-0-0-0-0-0-0-0-0-0-0-0-0-0-0-0-----1-1-1-1---| 
|-0-0-0-0-0-0-0-0-0-0-0-0-0-0-0-0-0-0-0-0-0-0-0-0-0-0-0-0-0-0-----1-1-1-1---| 
|-0-0-0-0-0-0-0-0-0-0-0-0-0-0-0-0-0-0-0-0-0-0-0-0-0-0-0-0-0-0-----1-1-1-1---| 



Chorus 

GtrI:                                                          x2 
 
|----------------------------------------------------------------|-8------| 
|----------------------------------------------------------------|----6---| 
|--------------------5h7-5h7p5---5-------------------------------|-------9| 
|-3-----5-----7----------------7---7-5--------0------------------|--------| 
|---0-0---0-0---------------------------8-7-5-0--0-0-0-0-0-0-0-0-|--------| 
|---0-0---0-0---------------------------------0--0-0-0-0-0-0-0-0-|--------| 


GtrII: 
 
                     couldnt work 0ut harmony 
|--------------------------------------------------|--------------------| 
|--------------------------------------------------|--------------------| 
|--------------------------------------------------|--------------------| 
|--------------------------------------------------|-3--3--3---5-5-5-5-5| 
|-5-0-0--7--0-8------------------------------------|-1--1--1---3-3-3-3-3| 
|---0-0-----0--------------------------------------|---0--0--0----------| 


Both Gtrs x2 halftime 
 
|------------------------------------------------------------------------| 
|------------------------------------------------------------------------| 
|------------------5/7--------------------------5/7----------------------| 
|----5/7-----3/5---3/5---7/8--------------5/7---3/5---7/8---3/5----------| 
|-0--3/5--0--1/3-0-----0-5/6--0-0-0-0---0-3/5-0-----0-5/6-0-1/3---0-1-1-1| 
|-0-------0------0-----0------0-0-0-0---0-----0-----0-----0-------0-1-1-1| 


then slow all palmuted 
 
|------------------------------------------------------------------------| 
|------------------------------------------------------------------------| 
|------------------------------------------------------------------------| 
|------------------------------------------------------------------------| 
|-6-5-3-2--4-3-1-0--0-0-0-0-0-0-0-0---4-4-1-1-0-0------------------------| 
|-6-5-3-2--4-3-1-0--0-0-0-0-0-0-0-0---4-4-1-1-0-0------------------------| 
		  

See also:

tabs Fall Out Boy - Beat It tabs Bad Religion - American Jesus tabs Afi - Miss murder tabs Green Day - Holiday ( Easy Version) tabs Green Day - Time of your life (good ridance) tabs Blink 182 - Stay together for the kids (ver. 2)
e-chords

Other versions:

tabs Blindside - Eye Of The Storm tabs Bullet for my Valentine - Eye Of The Storm tabs KillSwitch Engage - Eye Of The Storm
auto scroll beats size up size down change color hide chords drawings
tab show chords e-chords YouTube Clip e-chords hide all tabs e-chords go to top tab

share