Killface

Whats Your Pleasure

Killface

tabs

by  ADALGOMES

save to print version add songbook text version e-mail correct tuner
chordsukulelecavacokeyboardtabbassdrumsharmonicaflute Guitar Pro
close

there isn't a video lesson for this song

chords

Whats Your Pleasure

	  		


0:00 x16 
C---------------------------------| 
G---------------------------------| 
E---------------------------------| 
A#-1---0---4---3---1-1-0---5---7\-| 
F--1---0---4---3---1-1-0---5---7\-| 
A#-1---0---4---3---1-1-0---5---7\-| 

0:36 x2                                                            _ 
C------------------------------------------------------------------ | 
G------------------------------------------------------------------ | 
E----2-------------------------------------------------------2----- | 
A#-0---0-0-1-0-0-1-0-0-1-0-0-1-0-0-3-0-0-0-1-0-0-3-0-0-1-0-0------- | 
F------------------------------------------------------------------ | 
A#----------------------------------------------------------------- | 
                                                                    | 
0:44 x2                                                             |-x2 
C------------------------------------------------------------------ | 
G------------------------------------------------------------------ | 
E------------------------------------------------------------------ | 
A#----------------------------------------------------------------- | 
F------------------------------------------------------------------ | 
A#-3p0h3p0h1p0-0-1-0-0-1-0-0-1-0-0-3-0-0-0-1-0-0-3-0-0-1-0-0-5-0-0- | 
               . . . . . . . . . . . . . . . . . . . . . . . . . . _| 

1:11 
C----- 
G----- 
E----- 
A#-4/- 
F--6/- 
A#-4/- 

1:12                                                                   _ 
C-----------------------------------------------------------------------| 
G-----------------------------------------------------------------------| 
E-----------------------------------------------------------------------| 
A#----------------------------------------------------------------------| 
F--6-----6-----6-----6-----6---6---5-----5-----5-----5-----5------------| 
A#---3-3---3-3---3-3---3-3---3---3---2-2---2-2---2-2---2-2---2----------| 
     . .   . .   . .   . .   .   .   . .   . .   . .   . .   .          | 
                                                                        |-3x 
1:16                                                                    | 
C-----------------------------------------------------------------------| 
G-----------------------------------------------------------------------| 
E-----------------------------------------------------------------------| 
A#----------------------------------------------------------------------| 
F-----------------------------------------------------------------------| 
A#-3-5-6-0-0-0---0-3-5-6-0-0-0----0-3-5-6-0-0-0---0-3-5-6-0-0-0---0-0-0-| 
         . .     .       . .      .       . .     .       . .     . . ._| 

1:38 
C-----------------------------------------------------------------------| 
G-----------------------------------------------------------------------| 
E-----------------------------------------------------------------------| 
A#----------------------------------------------------------------------| 
F--6-----6-----6-----6-----6---6---5-----5-----5-----5-----8---8--------| 
A#---3-3---3-3---3-3---3-3---3---3---2-2---2-2---2-2---2-2---5---5------| 
     . .   . .   . .   . .   .   .   . .   . .   . .   . .   .   .      | 

1:43                                                              _ 
C------------------------------------------------------------------| 
G------------------------------------------------------------------| 
E------------------------------------------------------------------| 
A#-----------------------------------------------------------------| 
F----6-5---6-5---6-5---6-5---6-5-----5-4---5-4---4-3---3-2---2-1---| 
A#-0-----0-----0-----0-----0-----0-0-----0-----0-----0-----0-------| 
   .     .     .     .     .     . .     .     .     .     .       | 
                                                                   |-x3 
1:46                                                               | 
C------------------------------------------------------------------| 
G------------------------------------------------------------------| 
E------------------------------------------------------------------| 
A#-----------------------------------------------------------------| 
F------------------------------------------------------------------| 
A#-000-000-000-000-000-000-000-333-555-000-000-000-000-000-000-000-| 
   ... ... ... ... ... ... ... ... ... ... ... ... ... ... ... ..._| 

2:09 
C------------------------------------------------------------------| 
G------------------------------------------------------------------| 
E------------------------------------------------------------------| 
A#-----------------------------------------------------------------| 
F----6-5---6-5---6-5---6-5---6-5-----5-4---5-4---4-3---3-2---2-1---| 
A#-0-----0-----0-----0-----0-----0-0-----0-----0-----0-----0-------| 
   .     .     .     .     .     . .     .     .     .     .       | 

2:14 x6                                                       1st thru 5th             last 
C------------------------------------------------------------|------------------------|---| 
G------------------------------------------------------------|------------------------|---| 
E------------------------------------------------------------|------------------------|---| 
A#-0---1---0---4---3---1---5---7\--------6h7p6----6----------|6h7p6----6------------^-|-0-| 
F--0---1---0---4---3---1---5---7\--------------5-----5-------|------5-----5----5----5-|-0-| 
A#-0---1---0---4---3---1---5---7\--0--0--0-------------0--0--|0--------------00---00--|-0-| 
   ^   .   .   .   .   .   . 
omit 1st time 

3:15 x2 
C------------------------------------------------------------------| 
G------------------------------------------------------------------| 
E------------------------------------------------------------------| 
A#-----------------------------------------------------------------| 
F------------------------------------------------------------------| 
A#-888-777-888-999-888-777-888-999-888-777-888-999-888-777-555-333-| 
   ... ... ... ... ... ... ... ... ... ... ... ... ... ... ... ... 

3:24 x2 
C------------------------------------------------------------------| 
G------------------------------------------------------------------| 
E------------------------------------------------------------------| 
A#-----------------------------------------------------------------| 
F--888-777-888-999-888-777-888-999-888-777-888-999-888-777-555-333-| 
A#-----------------------------------------------------------------| 

3:32 x2 
C------------------------------------------------------------------| 
G------------------------------------------------------------------| 
E------------------------------------------------------------------| 
A#-----------------------------------------------------------------| 
F------------------------------------------------------------------| 
A#-8-0-7-0-8-0-9-0-8-0-7-0-8-0-9-0-8-0-7-0-8-0-9-0-8-0-7-0-5-0-3-0-| 
     .   .   .   .   .   .   .   .   .   .   .   .   .   .   .   . 

3:41 x2 
C------------------------------------------------------------------| 
G------------------------------------------------------------------| 
E------------------------------------------------------------------| 
A#-----------------------------------------------------------------| 
F--8-0-7-0-8-0-9-0-8-0-7-0-8-0-9-0-8-0-7-0-8-0-9-0-8-0-7-0-5-0-3-0-| 
A#---.---.---.---.---.---.---.---.---.---.---.---.---.---.---.---.-| 

3:51 x2 
C-------------------------------------------------------------------| 
G-------------------------------------------------------------------| 
E-------------------------------------------------------------------| 
A#------------------------------------------------------------------| 
F--6-5---6-5---6-5---6-5---88888888-6-5---6-5---6-5-----------------| 
A#-----0-----0-----0-----0--------------0-----0-----0-0-0-0-0-0-0-0-| 
       .     .     .     .              .     .     . . . . . . . . 

3:59 x2 
C---------------------------------------------------------------------| 
G---------------------------------------------------------------------| 
E---------------------------------------------------------------------| 
A#--------------------------------------------------------------------| 
F---------------------------------------------------------------------| 
A#-0-0-0-0-0-0-0-0-0-0-0-0-33333333-0-0-0-0-0-0-0-0-0-0-0-0-0-0-0-0-0-| 
   .   . .   . .   . .   .          .   . .   . .   . . . . . . . . . 

4:07 
C-------------------------------------------------------------------| 
G-------------------------------------------------------------------| 
E-------------------------------------------------------------------| 
A#------------------------------------------------------------------| 
F--6-5---6-5---6-5---6-5---88888888-6-5---6-5---6-5-----------------| 
A#-----0-----0-----0-----0--------------0-----0-----0-0-0-0-0-0-0-0-| 
       .     .     .     .              .     .     . . . . . . . . 

C-------------------------------------------------------------------| 
G-------------------------------------------------------------------| 
E-------------------------------------------------------------------| 
A#--------------------------------------------------0---0---0---0---| 
F--6-5---6-5---6-5---6-5---88888888-6-5---6-5---6-5-0---0---0---0---| 
A#-----0-----0-----0-----0--------------0-----0-----0---0---0---0---| 
       .     .     .     .              .     .     .   .   .   . 

4:18 x6 
C------------------------------------------------------------------| 
G------------------------------------------------------------------| 
E------------------------------------------------------------------| 
A#-----------------------------------------------------------------| 
F------------------------------------------------------------------| 
A#-1-0---1-0---1-0---1-0---3-3-3-3-1-0---1-0---1-0---0-0-0-0-0-0-0-| 
   .     .     .     .             .     .     .     . . . . . . . 

4:53 
C--------------------------------------------------| 
G--------------------------------------------------| 
E--------------------------------------------------| 
A#-------------------------------------------------| 
F--------------------------------------------------| 
A#-1-0---1-0---1-0---1-0---3-3-3-3-1-0---1-0---1-0-| 
   .     .     .     .             .     .     . 
		  

See also:

tabs Deep Purple - Ive Got Your Number tabs Deep Purple - Fireball tabs Albert Hammond Jr - Gfc tabs Deep Purple - Fireball (ver. 2) tabs Deep Purple - Never A Word tabs Ira! - Eu quero sempre mais (Solo)
e-chords

Other versions:

tabs Killface - Whats Your Pleasure
auto scroll beats size up size down change color hide chords drawings
tab show chords e-chords YouTube Clip e-chords hide all tabs e-chords go to top tab

share