Killer Be Killed

Curb Crusher

Killer Be Killed

tabs nolevel nolevel

by  TERCMORAES

save to print version add songbook text version e-mail correct tuner
chordsukulelecavacokeyboardtabbassdrumsharmonicaflute Guitar Pro
close

there isn't a video lesson for this song

chords

Curb Crusher

	  		

Guitars 1 and 2 (w/ dist) - many people plays just 0's palm muted, but it's not right, 
check live video here - https://www.youtube.com/watch?v=3lbroNGotc8 

D|-------------------------------------|--------------------------------| 
A|-------------------------------------|--------------------------------| 
F|-------------------------------------|--------------------------------| x4 
C|-------------------------------------|-------------------------1-s4---| 
G|-------------------------------------|-------------------------1-s4---| 
C|-1p-0----1p-0-1p-0-1p-0----1p-0-1p-0-|-1p-0---1p-0-1p-0-1p-0---1-s4---| 
           *  * *  *         *  * *  *          *  * *  * *  * 

----------------------------------------------------------------------------------------- 
|                                   VERSE (00:28-00:46)                                 | 
----------------------------------------------------------------------------------------- 

Guitars 1 and 2 (w/ dist) 

D|----------------------------------------| 
A|----------------------------------------| 
F|----------------------------------------| 
C|-----------------------6------8------9--| 
G|-----------------------6------8------9--| 
C|-0---0--0--0--0--0--0--6---0--8---0--9--| 
       *  *  *  *  *  *      *      *     
D|-------------------------------------------| 
A|-------------------------------------------| 
F|-------------------------------------------| x3 
C|-------------------------6------8------9---| 
G|-------------------------6------8------9---| 
C|-0--0--0--0--0--0--0--0--6---0--8---0--9---| 
   *  *  *  *  *  *  *  *      *      * 
D|-----------------------------------------------| 
A|-----------------------------------------------| 
F|-----------------------------------------------| x3 
C|-----------------------------6------8------9---| 
G|-----------------------------6------8------9---| 
C|-0-0-0--0-0-0--0-0-0--0-0-0--6---0--8---0--9---| 
   * * *  * * *  * * *  * * *      *      *        
D|-------------------------------------------| 
A|-------------------------------------------| 
F|-------------------------------------------| 
C|-----------------------------6----8----9---| 
G|-----------------------------6----8----9---| 
C|-0-0-0--0-0-0--0-0-0--0-0-0--6----8----9---| 
   * * *  * * *  * * *  * * *                                        
----------------------------------------------------------------------------------------- 
|                                 Pre-Chorus (00:46-01:04)                              | 
----------------------------------------------------------------------------------------- 

Guitars 1 and 2 (w/ dist) 

D|---------------------------------|----------------------------------------| 
A|---------------------------------|----------------------------------------| 
F|---------------------------------|----------------------------------------| x3 
C|-9-9-9-9-9-9-9-9-9-9-9-9-9-9-9-9-|-12-12-12-12-12-12-12-12-7-7-7-7-9--10--| 
G|-7-7-7-7-7-7-7-7-7-7-7-7-7-7-7-7-|-10-10-10-10-10-10-10-10-5-5-5-5-7--8---| 
C|---------------------------------|----------------------------------------| 

D|---------------------------------|------------------------------------------| 
A|---------------------------------|------------------------------------------| 
F|---------------------------------|------------------------------------------| 
C|-9-9-9-9-9-9-9-9-9-9-9-9-9-9-9-9-|-12-12-12-12-12-12-12-12-7-7-7-7----------| 
G|-7-7-7-7-7-7-7-7-7-7-7-7-7-7-7-7-|-10-10-10-10-10-10-10-10-5-5-5-5--10s\----| 
C|---------------------------------|----------------------------------10s\----| 

----------------------------------------------------------------------------------------- 
|                                    Chorus (01:04-01:23)                               | 
----------------------------------------------------------------------------------------- 
                                        same as INTRO 
----------------------------------------------------------------------------------------- 
|                                   verse 2 (01:23-01:41)                               | 
----------------------------------------------------------------------------------------- 
                                        same as VERSE 
----------------------------------------------------------------------------------------- 
|                                 Pre-Chorus 2 (01:41-02:00)                            | 
----------------------------------------------------------------------------------------- 
                                     same as Pre-Chorus                                      
----------------------------------------------------------------------------------------- 
|                                   Chorus 2 (02:00-02:18)                              | 
----------------------------------------------------------------------------------------- 

Guitars 1 and 2 (w/ dist) 

D|----------------------------------------|-------------------------------------| 
A|----------------------------------------|-------------------------------------| 
F|-5-s4----5-s4--5-s4--5-s4----5-s4--5-s4-|-5-s4----5-s4--5-s4--5-s4----5--7----| x4 
C|-3-s2----3-s2--3-s2--3-s2----3-s2--3-s2-|-3-s2----3-s2--3-s2--3-s2----3--5----| 
G|----------------------------------------|-------------------------------------| 
C|----------------------------------------|-------------------------------------| 
                                                                        * 

----------------------------------------------------------------------------------------- 
|                                    BRIDGE (02:18-02:45)                               | 
----------------------------------------------------------------------------------------- 

Guitars 1 and 2 (w/ dist) 

D|-------------------------------------------------|-----------------------------------------| 
A|-------------------------------------------------|-----------------------------------------| 
F|-------------------------------------------------|-----------------------------------------| x4 
C|-------------------------------------------------|-------------------------10--9---12--8---| 
G|-------------------------------------------------|-------------------------8---7---10--6---| 
C|-0---0-0-0-0-0---0-0-0-0-0---0-0-0-0-0---0-0-0-0-|-0---0-0-0-0-0---0-0-0-0-----------------| 
       * * * *     * * * *     * * * *     * * * *       * * * *     * * * * 
D|---------------------------------|---------------------------------| 
A|---------------------------------|---------------------------------| 
F|---------------------------------|---------------------------------| 
C|-10--9---12--8---10--9---12--8---|-10--9---12--8---10--9---12--8---| 
G|-8---7---10--6---8---7---10--6---|-8---7---10--6---8---7---10--6---| 
C|---------------------------------|---------------------------------| 

----------------------------------------------------------------------------------------- 
|                                   Chorus 3 (02:45-03:18)                              | 
----------------------------------------------------------------------------------------- 

Guitars 1 and 2 (w/ dist) 

D|-------------------------------------|--------------------------------| 
A|-------------------------------------|--------------------------------| 
F|-------------------------------------|--------------------------------| x6 
C|-------------------------------------|-------------------------1-s4---| 
G|-------------------------------------|-------------------------1-s4---| 
C|-1p-0----1p-0-1p-0-1p-0----1p-0-1p-0-|-1p-0---1p-0-1p-0-1p-0---1-s4---| 
           *  * *  *         *  * *  *          *  * *  * *  * 

----------------------------------------------------------------------------------------- 
|                                     OUTRO (03:18-03:31)                               | 
----------------------------------------------------------------------------------------- 

Guitars 1 and 2 (w/ dist) 

D|--------|--------| 
A|--------|--------| 
F|--------|--------| 
C|-0------|--------| 
G|-0------|--------| 
C|-0------|--------| 
		  

See also:

tabs Doa - Sexyest Girl tabs Deep Purple - Smoke on the water (intro) tabs Deep Purple - Highway Star tabs Albert Hammond Jr - Holiday tabs Deep Purple - Deep Purple - Smoke On The Water tabs Deep Purple - Ted The Mechanic
e-chords

Other versions:

tabs Killer Be Killed - Curb Crusher
auto scroll beats size up size down change color hide chords drawings
tab show chords e-chords YouTube Clip e-chords hide all tabs e-chords go to top tab

share with facebook