Kids In The Way

Appirations of melody

Kids In The Way

tabs Beginner beginner

by  CRAPHOLE

save to print version add songbook text version e-mail correct tuner
chordsukulelecavacokeyboardtabbassdrumsharmonicaflute Guitar Pro
close

there isn't a video lesson for this song

chords

Appirations of melody

	  		this song is nice, 
i think that this is my favorite one of there songs 
 
(intro)&(verse1) 
E------------------------------------------------------------------- 
B------------------------------------------------------------------- 
G------------------------------------------------------------------- 
D-------------------------------------------------------4-4--4-4---- 
A----4--4--7-4-7-4----4--4--7-4-7-4----2--2--5-2-5-2----4-4--4-4---- 
E-------------------------------------------------------2-2--2-2---- 
 
 
(Chorus) 
E------------------ 
B------------------ 
G----9--6--4--8---- 
D----9--6--4--8---- 
A----7--4--2--6---- 
E------------------ 
 
then do verse1 and then this 
 
(verse2) 
E----9----12----14----9----12----14---- 
B-------------------------------------- 
G-------------------------------------- 
D-------------------------------------- 
A-------------------------------------- 
E-------------------------------------- 
 
 
E------------------------------------------------------------------- 
B------------------------------------------------------------------- 
G------------------------------------------------------------------- 
D-------------------------------------------------------4-4--4-4---- 
A----4--4--7-4-7-4----4--4--7-4-7-4----2--2--5-2-5-2----4-4--4-4---- 
E-------------------------------------------------------2-2--2-2---- 
 
then the Chorus 
 
(solo) 
E----15----9----15----9----15----9----11----12---- 
B------------------------------------------------- 
G------------------------------------------------- 
D------------------------------------------------- 
A------------------------------------------------- 
E------------------------------------------------- 
 
then the Chorus, 
let ring the first time though, 
after 1 more time, 
go back to the verse and though the rest of the song, 
 

		  

See also:

tabs Green Day - She tabs Green Day - Boulevard of Broken Dreams (acoustic part) tabs Blink 182 - Anthem Part II tabs Blink 182 - Dammit tabs Blink 182 - Aliens Exist tabs Blink 182 - Always
e-chords

Other versions:

tabs Kids In The Way - Appirations of melody
auto scroll beats size up size down change color hide chords drawings
tab show chords e-chords YouTube Clip e-chords hide all tabs e-chords go to top tab

share