Kiaka

Niova Solo

Kiaka

tabs Expert expert

by  MBEFINOANA

save to print version add songbook text version e-mail correct tuner
chordsukulelecavacokeyboardtabbassdrumsharmonicaflute Guitar Pro
close

there isn't a video lesson for this song

chords

Niova Solo

	  		Intro 

e---------------------- --------------------- --------------------- 
b---------------------- ------8--11--10------ --------------------- 
g--7--9--10--10-----7-- --10-------------10-- ---------12--10------ 
d---------------------- --------------------- --8--10----------12-- 
a---------------------- --------------------- --------------------- 
E---------------------- --------------------- --------------------- 



e-------------------- 
b--11--10--8--------- 
g-------------10--9-- 
d-------------------- 
a-------------------- 
E-------------------- 


Interlude 

e---------------------- ------15--18--17------ ----------15---------- 
b--15--17--18--18--15-- --18--------------18-- --------------18--15-- 
g---------------------- ---------------------- --15--17-------------- 
d---------------------- ---------------------- ---------------------- 
a---------------------- ---------------------- ---------------------- 
E---------------------- ---------------------- ---------------------- 



e--18--17--15---------- 
b--------------18--17-- 
g---------------------- 
d---------------------- 
a---------------------- 
E---------------------- 


Ending Solo w/ Overdrive 

e------------------ ----------------------- ---------8--10--10-- --12--13--12-- 
b--8/9\8----------- ------------8--10--11-- --8--10------------- -------------- 
g--------10--9--7-- --7--9--10------------- -------------------- -------------- 
d------------------ ----------------------- -------------------- -------------- 
a------------------ ----------------------- -------------------- -------------- 
E------------------ ----------------------- -------------------- -------------- 



e-------------15--17---------- ---------------------- ---------------------------------- 
b-15--17--18----------18--15-- --15--17--18---------- --15-15--------------------------- 
g----------------------------- --------------15--15-- ----------17--17--15--14--14--17-- 
d----------------------------- ---------------------- ---------------------------------- 
a----------------------------- ---------------------- ---------------------------------- 
E----------------------------- ---------------------- ---------------------------------- 



e--------------15--17^--------- ----------15/17\15------ 
b--15--17--18----------18--15-- --17--18------------15-- 
g------------------------------ ------------------------ 
d------------------------------ ------------------------ 
a------------------------------ ------------------------ 
E------------------------------ ------------------------ 



e--18--17--15------15--17--15-------------------------- 
b--------------18--------------18--18------------------ 
g------------------------------------------------------ 
d------------------------------------------------------ 
a------------------------------------------------------ 
E------------------------------------------------------ 
		  

See also:

tabs Hale - Blue Sky tabs No Doubt - don't speak solo tabs Red Hot Chili Peppers - Tell Me Baby tabs Red Hot Chili Peppers - Fortune Faded tabs Audioslave - I Am the Highway tabs Red Hot Chili Peppers - Road Trippin'
e-chords

Other versions:

tabs Kiaka - Niova Solo
auto scroll beats size up size down change color hide chords drawings
tab show chords e-chords YouTube Clip e-chords hide all tabs e-chords go to top tab

share