Kele

home > Kele

Closer Tab

Kele

Difficulty: nolevelnolevel

by aleffederico

tuner correct add songbook print version text version save to e-mail
chordsukulelecavacokeyboardtabbassdrumsharmonicsflute Guitar Pro
chords

Closer

  		Intro/Outro 
Guitar 1 
e|---------1-----------------1-----| 
B|-1---1---3---1-----1---1---3---1-| 
G|-2---2---2---0-----2---0---2---0-| 
D|-2---3---0---2-----2---2---0---2-| 
A|-0---3-------3-----0---3-------3-| 
E|-----1---------------------------| 

Guitar 2/3 (for one guitar) 
e|-----------------------------------------------------------13-12----| 
B|---13-12----10-8---------------------13-12-----12-10-------------13-| 
G|---------------------10-9-------------------------------------------| 
D|------------------00------10---------------1010-------1212----------| 
A|-00-------88---------------------00---------------------------------| 
E|--------------------------------------------------------------------| 

Verse 
Guitar 1 
e|---------1-----------------1-----| 
B|-1---1---3---1-----1---1---3---1-| 
G|-2---2---2---0-----2---0---2---0-| 
D|-2---3---0---2-----2---2---0---2-| 
A|-0---3-------3-----0---3-------3-| 
E|-----1---------------------------| 

Guitar 2 
e|----------------------------------| 
B|-----------------------5-3--6-5---| 
G|-5-4---------------5-4----------5-| 
D|------7-5--3-2--------------------| 
A|---------------3~-----------------| 
E|----------------------------------| 

Chorus 
        (x2)                (x2) 
e|---------------------|-1-1-11-1------------| 
B|-1-1-11-1--1-1-11-1--|-3-3-33-3--1-1-11-1--| 
G|-2-2-22-2--2-2-22-2--|-2-2-22-2--2-2-22-2--| 
D|-3-3-33-3--2-2-22-2--|-0-0-00-0--2-2-22-2--| 
A|-3-3-33-3--0-0-00-0--|-----------0-0-00-0--| 
E|-1-1-11-1------------|---------------------| 
	  

Search Paypal
auto scroll beats size up size down change color hide chords drawings
tab show chords e-chords YouTube Clip e-chords hide all tabs e-chords go to top tab