KC and The Sunshine Band

Play that funky music

KC and The Sunshine Band

tabs Easy easy

by  BCAD

save to print version add songbook text version e-mail correct tuner
chordsukulelecavacokeyboardtabbassdrumsharmonicaflute Guitar Pro
close

there isn't a video lesson for this song

chords

Play that funky music

	  		this is the intro to play that funky music 
 
 
----------------------------------------------- 
----------------------------------------------- 
----------------------------------------------- 
-------7-5-7------5h7-------------------------- 
--------------5h7------------------------------ 
--5-5------------------------------------------ 
repeat as needed  
then play this once 
 
----------------------------------------------- 
----------------------------------------------- 
-------7-5-7-----5h7--------------------------- 
-------------5h7------------------------------- 
-5-5------------------------------------------- 
----------------------------------------------- 
 
first tab so don't expect anything special 
 

		  

See also:

tabs Marc Broussard - Lonely Night in Georgia tabs Kelly Clarkson - Because Of You tabs Michael Jackson - Beat It (ver. 2) tabs Ryan Cabrera - On the way down tabs Christopher Cross - Sailing tabs My Chemical Romance - Thank You For The Venom
e-chords

Other versions:

tabs James Brown - Play That Funky Music tabs KC and The Sunshine Band - Play that funky music tabs Wild Cherry - Play That Funky Music tabs James Brown - Play that funky music (ver. 2) tabs Wild Cherry - Play That Funky Music White Boy tabs Wild Cherry - Play That Funky Music White Boy Correct
auto scroll beats size up size down change color hide chords drawings
tab show chords e-chords YouTube Clip e-chords hide all tabs e-chords go to top tab

share