Kansas

Carry On My Way Word Son

Kansas

tabs Expert expert

by  KPJ92

save to print version add songbook text version e-mail correct tuner
chordsukulelecavacokeyboardtabbassdrumsharmonicaflute Guitar Pro
close

there isn't a video lesson for this song

chords

Carry On My Way Word Son

	  		Intro 

D-------------------5 
A------3-------5-5/7-7-5-5--5 
E-5-3-5---5-3-5---------8-3--2-    PLAY THAT TWO TIMES 


B----------12-12----------------------14-12----------- 
G----------12-12----------------------14-12----------- 
D----------12-12------2-5-2-----------14-12------2-5-2 
A------------------2-5-----5------------------2-5-----5 
E-0-0-------------------------0-0----------------------    play that two times 


solo:PLAY THE PULL OFFS REALLY QUICK 

B-------------------7--5 
G-2p0---------------7--5 
D----2p0-----0-0----7--5 
A-------3p0-3-3-----5--3   PLAY THAT FOUR TIMES 
E-
		  

See also:

tabs Theme Songs - Mario Bros. tabs Hot Apple Pie - Hillbillies tabs James Taylor - Youve Got A Friend (ver. 2) tabs Kenny Chesney - I Go Back tabs Garth Brooks - If Tomorrow Never Comes.(ver.2) tabs Alan Jackson - Chattahoochee Correct
e-chords

Other versions:

tabs Kansas - Carry On My Way Word Son
auto scroll beats size up size down change color hide chords drawings
tab show chords e-chords YouTube Clip e-chords hide all tabs e-chords go to top tab

share