Kaiser Chiefs

Kinda Girl You Are

Kaiser Chiefs

tabs Expert expert

by  ADALGOMES

save to print version add songbook text version e-mail correct tuner
chordsukulelecavacokeyboardtabbassdrumsharmonicaflute Guitar Pro
close

there isn't a video lesson for this song

chords

Kinda Girl You Are

	  		Introdução slide da 12 casa até a nota A 

A C F C D 

 
E|-------------------| 
B|-------------------| 
G|-------------------| 
D|-2--5-----5--7-----| 
A|-0--3--3--3--5-----| 
E|-------1-----------| 
 

Primeira parte do solo 

 
E|-----------------------------------------------| 
B|-----------------------------------------------| 
G|-4-7-4-6-----4----6---4-7-4-6---4----6-4-------| x2 
D|------------7----7-----------------7----7------| 
A|-----------------------------------------------| 
E|-----------------------------------------------| 
 
		  

Full key step upFull key step up
Half key step upHalf key step up
Half key step downHalf key step down
Full key step downFull key step down
hide glossary

See also:

tabs Alt-J - Breezeblocks tabs Oasis - Be Here Now tabs Oasis - The Hindu Times tabs Oasis - Digsy's Dinner tabs Oasis - Stand By Me tabs Oasis - Up in the sky
e-chords

Other versions:

tabs Kaiser Chiefs - Kinda Girl You Are
auto scroll beats size up size down change color hide chords drawings
tab show chords e-chords YouTube Clip e-chords hide all tabs e-chords go to top tab

share