Kaiser Chiefs

Every Day I Love You Less And Less (solo)

Kaiser Chiefs

tabs

by  SHERVIN14

save to print version add songbook text version e-mail correct tuner
chordsukulelecavacokeyboardtabbassdrumsharmonicaflute Guitar Pro
close

there isn't a video lesson for this song

chords

Every Day I Love You Less And Less (solo)

	  		E|---0-2-45454-2-0-2-020----------------- 
B|-4---------------------4-2-0-2-00-22--- 
G|--------------------------------------- 
D|--------------------------------------- 
A|--------------------------------------- 
E|--------------------------------------- 
 
E|---0-2-45454-2-0-2-020---------020----- 
B|-4---------------------4-2-0-2-----4-2- 
G|--------------------------------------- 
D|--------------------------------------- 
A|--------------------------------------- 
E|--------------------------------------- 
 
Enjoy, Shervin. 

		  

auto scroll beats size up size down change color hide chords drawings
tab show chords e-chords YouTube Clip e-chords hide all tabs e-chords go to top tab

share