Justo Santos

The Mora Limpia

Justo Santos

tabs Beginner beginner

by  MIKEMONTIEL

save to print version add songbook text version e-mail correct tuner
chordsukulelecavacokeyboardtabbassdrumsharmonicaflute Guitar Pro
close

there isn't a video lesson for this song

chords

The Mora Limpia

(Justo Santos)

	  		THE MORA LIMPIA 
FROM NICARAGUA  

GIVED IN TAB`S CHORDS BY MIKE MONTIEL 
 
e-------------------------------------------------------------- 
b----------------------------------2--------------------------- 
g-2-4---------2--------------------2--------------------------- 
d-----1-2-4---2------------------0----------------------------- 
a-----------1-1----4-------4---0------------------------------- 
e----------------0---0-2-0---0--------------------------------- 
 
e-------------------------------------------------------------- 
b-------------------------------------2------------------------ 
g---------------------------------4---2------------------------ 
d---------------------4---2---0-----2-------------------------- 
a---4---------4---1-----4---1---0------------------------------ 
e-0---0-3-2-0---2---0------------------------------------------ 
 
e-------------------------------------------------------------- 
b----------------------------------2--------------------------- 
g-2-4---------2--------------------2--------------------------- 
d-----1-2-4---2------------------0----------------------------- 
a-----------1-1----4-------4---0------------------------------- 
e----------------0---0-2-0---0--------------------------------- 
 
e-------------------------------------------------------------- 
b-------------------------------------2------------------------ 
g---------------------------------4---2------------------------ 
d---------------------4---2---0-----2-------------------------- 
a---4---------4---1-----4---1---0------------------------------ 
e-0---0-3-2-0---2---0------------------------------------------ 
 
 
e-------------------------------------------------------------- 
b-------------------------------------------------------------- 
g-------------------------------------------------------------- 
d-4---9---12--------------------------------------------------- 
a-5---8---12-----4---------4------4-4--7-7--10-10--8----------- 
e-3---7---12---0---0-3-2-0---0-2--2-2--5-5--8--8---7----------- 
 
e-------------------------------------------------------------- 
b-------------------------------------------------------------- 
g-------------------------------------------------------------- 
d-------------------------------------------------------------- 
a---4---------4------4-4--7-7--10-10--8------------------------ 
e-0---0-3-2-0---0-2--2-2--5-5--8--8---7------------------------ 
 
e-------------------------------------------------------------- 
b-------------------------------------------------------------- 
g-------------------------------------------------------------- 
d-----------------7----7----7-----------------8---------------- 
a-------------------------------------------7------------------ 
e-5-4-5/8-8-7-5-7---10---10---10-10-10-10-8-------------------- 
 
e-------------------------------------------------------------- 
b-------------------------------------------------------------- 
g-------------------------------------------------------------- 
d-----------8------------9---------------8------------9-------- 
a-------8-7---------10-8-------------8-7---------10-8---------- 
e-7-8-7-------7-8-7------------7-8-7-------7-8-7--------------- 
 
e-------------------------------------------------------------- 
b-------------------------------------------------------------- 
g-------------------------------------------------------------- 
d-------------------------------------------------------------- 
a-------------------------------------------------------------- 
e-8-7-8/12-12-10-8-7--3-2-3/5-5-3-2-3-------------------------- 
 
e-------------------------------------------------------------- 
b-------------------------------------------------------------- 
g-------------------------------------------------------------- 
d-------------------------------------------------------------- 
a-------------------------------------------------------------- 
e-8-7-8/12-12-10-8-7--3-2-3/5-5-3-2-3-------------------------- 
 
e-------------------------------------------------------------- 
b----------------------------------2--------------------------- 
g---------------------0-0-3-1-3-1--2--------------------------- 
d---------------2---0------------------------------------------ 
a-1-0-1---3-1-0---0-------------------------------------------- 
e-------0------------------------------------------------------ 
 
IF YOU WANT ALL PART OF THE MUSIC, 
ASK TO MY E-MAIL: [email protected] 
		  

auto scroll beats size up size down change color hide chords drawings
tab show chords e-chords YouTube Clip e-chords hide all tabs e-chords go to top tab

share