Justin Vernon

May 27th 1999 523 Am

Justin Vernon

tabs

by  VICTBORGES

save to print version add songbook text version e-mail correct tuner
chordsukulelecavacokeyboardtabbassdrumsharmonicaflute Guitar Pro
close

there isn't a video lesson for this song

chords

May 27th 1999 523 Am

	  		


D-|------0-------0--------0---0------0--------0-------0-0-0-| 
A-|---------0-------0-------0-----------0--------0----0-0-0-| 
F#|---------------------------------------------------------| 
D-|---------------------------------------------------------| 
A-|--5--------5--------5--------h4--------4--------4--------| 
D-|---------------------------------------------------------| 

D-|------0-------0--------0-0-0-----0-0----0------0-0----0--| 
A-|---------0-------0-------0-0-----0-0----0------0-0----0--| 
F#|---------------------------------0-0----0------0-0----0--| 
D-|---------------------------------------------------------| 
A-|0h2--------2--------2------------------------------------| 
D-|------------------------------5------2-----/4-----\2-----| 

D-|-------0---0-----0--0---0-0-0-----0--0-----0--0----0-0-0-| 
A-|-----0-0-0-0-----0--0---0-0-0-----0--0-----0--0----0-0-0-| 
F#|-----0-0-0-0-----0--0---0-0-0-----0--0-----0--0----0-0-0-| 
D-|-----0-0-0-0-----0--0---0-0-0----------------------------| 
A-|-----0-0-0-0h5--------5------h4--------4--------4--------| 
D-|--0------------------------------------------------------| 

D-|------0--0----0--0-----0-0-0-----0-0----0------0-0----0--| 
A-|------0--0----0--0-----0-0-0-----0-0----0------0-0----0--| 
F#|------0--0----0--0-----0-0-0-----0-0----0------0-0----0--| 
D-|---------------------------------------------------------| 
A-|0h2--------2--------2------------------------------------| 
D-|------------------------------5------2-----/4-----\2-----| 

       Gone?? 
D-|-------0---0-----0--0---0-0-0-----0--0-----0--0----0-0-0-| 
A-|-----0-0-0-0-----0--0---0-0-0-----0--0-----0--0----0-0-0-| 
F#|-----0-0-0-0-----0--0---0-0-0-----0--0-----0--0----0-0-0-| 
D-|-----0-0-0-0-----0--0---0-0-0----------------------------| 
A-|-----0-0-0-0h5--------5------h4--------4--------4--------| 
D-|--0------------------------------------------------------| 

  We  blew  our  time   away 
D-|------0--0----0--0-----0-0-0------0--0-----0--0----0-0-0-| 
A-|------0--0----0--0-----0-0-0------0--0-----0--0----0-0-0-| 
F#|------0--0----0--0-----0-0-0------0--0-----0--0----0-0-0-| 
D-|---------------------------------------------------------| 
A-|0h2--------2--------2--------0h4-------4--------4--------| 
D-|---------------------------------------------------------| 

       Gone away 
D-|------0--0----0--0-----0-0-0------0--0-----0--0----------| 
A-|------0--0----0--0-----0-0-0------0--0-----0--0----------| 
F#|------0--0----0--0-----0-0-0------0--0-----0--0----------| 
D-|---------------------------------------------------------| 
A-|0h5--------5--------5--------0h4-------4--------4--------| 
D-|---------------------------------------------------------| 

 are our endless childhood nights 
D-|------0--0----0--0----------------0--0-----0--0----0-0-0-| 
A-|------0--0----0--0----------------0--0-----0--0----0-0-0-| 
F#|------0--0----0--0----------------0--0-----0--0----0-0-0-| 
D-|---------------------------------------------------------| 
A-|0h2--------2--------2--------0h4-------4--------4--------| 
D-|---------------------------------------------------------| 

        But for now                       were   running out of 
D-|--0-------------------------------------------0----------| 
A-|--x-------------------------------------------0----------| 
F#|--5-------------------------------------------7----------| 
D-|--5-------------------------------------------7----------| 
A-|--x-------------------------------------------x----------| 
D-|--5-------------------------------------------7----------| 

     time?. 
D-|------0--0----0--0-----0-0-0------0--0-----0--0----------| 
A-|------0--0----0--0-----0-0-0------0--0-----0--0----------| 
F#|------0--0----0--0-----0-0-0------0--0-----0--0----------| 
D-|---------------------------------------------------------| 
A-|0h5--------5--------5--------0h4-------4--------4--------| 
D-|---------------------------------------------------------| 

D-|------0--0----0--0----------------0--0-----0--0----0-0-0-| 
A-|------0--0----0--0----------------0--0-----0--0----0-0-0-| 
F#|------0--0----0--0----------------0--0-----0--0----0-0-0-| 
D-|---------------------------------------------------------| 
A-|0h2--------2--------2--------0h4-------4--------4--------| 
D-|---------------------------------------------------------| 

D-|0-----0--0----0--0-----0-0-0------0--0-----0--0----------| 
A-|0-----0--0----0--0-----0-0-0------0--0-----0--0----------| 
F#|0-----0--0----0--0-----0-0-0------0--0-----0--0----------| 
D-|0-----0--0----0--0---------------------------------------| 
A-|4/5---5--5----------5--------0h4-------4--------4--------| 
D-|---------------------------------------------------------| 

D-|------0--0----0--0-----0-0-0-----0-0----0------0-0----0--| 
A-|------0--0----0--0-----0-0-0-----0-0----0------0-0----0--| 
F#|------0--0----0--0-----0-0-0-----0-0----0------0-0----0--| 
D-|---------------------------------------------------------| 
A-|0h2--------2--------2------------------------------------| 
D-|------------------------------5------2-----/4-----\2-----| 

                 Kid rolls up her sleeves               says ?I 
D-|-------0---0-----0--0---0-0-0-----0--0-----0--0----0-0-0-| 
A-|-----0-0-0-0-----0--0---0-0-0-----0--0-----0--0----0-0-0-| 
F#|-----0-0-0-0-----0--0---0-0-0-----0--0-----0--0----0-0-0-| 
D-|--0--0-0-0-0-----0--0---0-0-0----------------------------| 
A-|--0--0-0-0-0h5--------5------h4--------4--------4--------| 
D-|--0------------------------------------------------------| 

    don?t understand    why  it  must end" 
D-|------0--0----0--0-----0-0-0------0--0-----0--0----0-0-0-| 
A-|------0--0----0--0-----0-0-0------0--0-----0--0----0-0-0-| 
F#|------0--0----0--0-----0-0-0------0--0-----0--0----0-0-0-| 
D-|---------------------------------------------------------| 
A-|0h2--------2--------2--------0h4-------4--------4--------| 
D-|---------------------------------------------------------| 

  It?s hot   but she?s cold                               she?s 
D-|0-----0--0----0--0-----0-0-0------0--0-----0--0----------| 
A-|0-----0--0----0--0-----0-0-0------0--0-----0--0----------| 
F#|0-----0--0----0--0-----0-0-0------0--0-----0--0----------| 
D-|0-----0--0----0--0---------------------------------------| 
A-|4/5---5--5----------5--------0h4-------4--------4--------| 
D-|---------------------------------------------------------| 

  got tears on her nose 
D-|------0--0----0--0----------------0--0-----0--0----0-0-0-| 
A-|------0--0----0--0----------------0--0-----0--0----0-0-0-| 
F#|------0--0----0--0----------------0--0-----0--0----0-0-0-| 
D-|---------------------------------------------------------| 
A-|0h2--------2--------2--------0h4-------4--------4--------| 
D-|---------------------------------------------------------| 

  She?s packing up her clothes 
D-|0-----0--0----0--0-----0-0-0------0--0-----0--0----------| 
A-|0-----0--0----0--0-----0-0-0------0--0-----0--0----------| 
F#|0-----0--0----0--0-----0-0-0------0--0-----0--0----------| 
D-|0-----0--0----0--0---------------------------------------| 
A-|4/5---5--5----------5--------0h4-------4--------4--------| 
D-|---------------------------------------------------------| 

 She?s moving down the road                              Saying 
D-|------0--0----0--0----------------0--0-----0--0----0-0-0-| 
A-|------0--0----0--0----------------0--0-----0--0----0-0-0-| 
F#|------0--0----0--0----------------0--0-----0--0----0-0-0-| 
D-|---------------------------------------------------------| 
A-|0h2--------2--------2--------0h4-------4--------4--------| 
D-|---------------------------------------------------------| 

   farewell to all of her friends                           cause 
D-|0-----0--0----0--0-----0-0-0------0--0-----0--0----------| 
A-|0-----0--0----0--0-----0-0-0------0--0-----0--0----------| 
F#|0-----0--0----0--0-----0-0-0------0--0-----0--0----------| 
D-|0-----0--0----0--0---------------------------------------| 
A-|4/5---5--5----------5--------0h4-------4--------4--------| 
D-|---------------------------------------------------------| 

  everything good        must have an end            she said 
D-|------0--0----0--0----------------0--0-----0--0----0-0-0-| 
A-|------0--0----0--0----------------0--0-----0--0----0-0-0-| 
F#|------0--0----0--0----------------0--0-----0--0----0-0-0-| 
D-|---------------------------------------------------------| 
A-|0h2--------2--------2--------0h4-------4--------4--------| 
D-|---------------------------------------------------------| 

      "Laugh while you can,   you?re never gonna see them 
D-|--0-------------------------------------------0----------| 
A-|--x-------------------------------------------0----------| 
F#|--5-------------------------------------------7----------| 
D-|--5-------------------------------------------7----------| 
A-|--x-------------------------------------------x----------| 
D-|--5-------------------------------------------7----------| 

    again" 
D-|0-----0----------0--0--0-----0-----0----0-----0--0--0-0-0| 
A-|0-----0----0-----0--0--0-0-0-0-----0----0-----0--0--0-0-0| 
F#|0-----0----0-----0--0--0-0-0-0-----0----0-----0--0--0-0-0| 
D-|0-----0----0-----0--0--0-0-0-0-----0----0-----0--0--0-0-0| 
A-|4/5---5----5-----5--5--5-----0h4---4----4-----4--4--4----| 
D-|---------------------------------------------------------| 

D-|0-----0----------0--0--0-----0-----0----0-----0--0--0-0-0| 
A-|0-----0----0-----0--0--0-0-0-0-----0----0-----0--0--0-0-0| 
F#|0-----0----0-----0--0--0-0-0-0-----0----0-----0--0--0-0-0| 
D-|0-----0----0-----0--0--0-0-0-0-----0----0-----0--0--0-0-0| 
A-|0h2---2----2-----2--2--2-----0h4---4----4-----4--4--4----| 
D-|---------------------------------------------------------| 

 See hold    their    hand, 
D-|0-----0----------0-----0-----0-----0----0-----0-----0-0-0| 
A-|0-----0----0-----0-----0-0-0-0-----0----0-----0-----0-0-0| 
F#|0-----0----0-----0-----0-0-0-0-----0----0-----0-----0-0-0| 
D-|0-----0----0-----0-----0-0-0-0-----0----0-----0-----0-0-0| 
A-|4/5---5----5-----5-----5-----0h4---4----4-----4-----4----| 
D-|---------------------------------------------------------| 

 as tight              as you can                  say to you 
D-|0-----0----------0-----0-----0-----0----0-----0-----0-0-0| 
A-|0-----0----0-----0-----0-0-0-0-----0----0-----0-----0-0-0| 
F#|0-----0----0-----0-----0-0-0-0-----0----0-----0-----0-0-0| 
D-|0-----0----0-----0-----0-0-0-0-----0----0-----0-----0-0-0| 
A-|0h2---2----2-----2-----2-----0h4---4----4-----4-----4----| 
D-|---------------------------------------------------------| 

         if you never look down,      then you?re never gonna 
D-|--0-------------------------------------------0----------| 
A-|--x-------------------------------------------0----------| 
F#|--5-------------------------------------------7----------| 
D-|--5-------------------------------------------7----------| 
A-|--x-------------------------------------------x----------| 
D-|--5-------------------------------------------7----------| 

    land 
D-|------0--0----0--0-----0-0-0------0--0-----0--0----------| 
A-|------0--0----0--0-----0-0-0------0--0-----0--0----------| 
F#|------0--0----0--0-----0-0-0------0--0-----0--0----------| 
D-|---------------------------------------------------------| 
A-|0h5--------5--------5--------0h4-------4--------4--------| 
D-|---------------------------------------------------------| 

D-|------0--0----0--0----------------0--0-----0--0----0-0-0-| 
A-|------0--0----0--0----------------0--0-----0--0----0-0-0-| 
F#|------0--0----0--0----------------0--0-----0--0----0-0-0-| 
D-|---------------------------------------------------------| 
A-|0h2--------2--------2--------0h4-------4--------4--------| 
D-|---------------------------------------------------------| 

D-|0-----0--0----0--0-----0-0-0------0--0-----0--0----------| 
A-|0-----0--0----0--0-----0-0-0------0--0-----0--0----------| 
F#|0-----0--0----0--0-----0-0-0------0--0-----0--0----------| 
D-|0-----0--0----0--0---------------------------------------| 
A-|4/5---5--5----------5--------0h4-------4--------4--------| 
D-|---------------------------------------------------------| 

D-|------0--0----0--0-----0-0-0-----0-0----0------0-0----0--| 
A-|------0--0----0--0-----0-0-0-----0-0----0------0-0----0--| 
F#|------0--0----0--0-----0-0-0-----0-0----0------0-0----0--| 
D-|---------------------------------------------------------| 
A-|0h2--------2--------2------------------------------------| 
D-|------------------------------5------2-----/4-----\2-----| 

             A mothers love                            and  a 
D-|-------0---0-----0--0---0-0-0-----0--0-----0--0----0-0-0-| 
A-|-----0-0-0-0-----0--0---0-0-0-----0--0-----0--0----0-0-0-| 
F#|-----0-0-0-0-----0--0---0-0-0-----0--0-----0--0----0-0-0-| 
D-|--0--0-0-0-0-----0--0---0-0-0----------------------------| 
A-|--0--0-0-0-0h5--------5------h4--------4--------4--------| 
D-|--0------------------------------------------------------| 

    fathers   hand 
D-|------0--0----0--0-----0-0-0------0--0-----0--0----0-0-0-| 
A-|------0--0----0--0-----0-0-0------0--0-----0--0----0-0-0-| 
F#|------0--0----0--0-----0-0-0------0--0-----0--0----0-0-0-| 
D-|---------------------------------------------------------| 
A-|0h2--------2--------2--------0h4-------4--------4--------| 
D-|---------------------------------------------------------| 

     can  always pull you  out   of 
D-|0-----0--0----0--0-----0-0-0------0--0-----0--0----0-0-0-| 
A-|0-----0--0----0--0-----0-0-0------0--0-----0--0----0-0-0-| 
F#|0-----0--0----0--0-----0-0-0------0--0-----0--0----0-0-0-| 
D-|0-----0--0----0--0---------------------------------------| 
A-|4/5---5--5----------5--------0h4-------4--------4--------| 
D-|---------------------------------------------------------| 

   quicksand 
D-|------0--0----0--0-----0-0-0------0--0-----0--0----0-0-0-| 
A-|------0--0----0--0-----0-0-0------0--0-----0--0----0-0-0-| 
F#|------0--0----0--0-----0-0-0------0--0-----0--0----0-0-0-| 
D-|---------------------------------------------------------| 
A-|0h2--------2--------2--------0h4-------4--------4--------| 
D-|---------------------------------------------------------| 

      But you get up                                  you just 
D-|0-----0--0----0--0-----0-0-0------0--0-----0--0----0-0-0-| 
A-|0-----0--0----0--0-----0-0-0------0--0-----0--0----0-0-0-| 
F#|0-----0--0----0--0-----0-0-0------0--0-----0--0----0-0-0-| 
D-|0-----0--0----0--0---------------------------------------| 
A-|4/5---5--5----------5--------0h4-------4--------4--------| 
D-|---------------------------------------------------------| 

   dust yourself off                                when you?re 
D-|------0--0----0--0-----0-0-0------0--0-----0--0----0-0-0-| 
A-|------0--0----0--0-----0-0-0------0--0-----0--0----0-0-0-| 
F#|------0--0----0--0-----0-0-0------0--0-----0--0----0-0-0-| 
D-|---------------------------------------------------------| 
A-|0h2--------2--------2--------0h4-------4--------4--------| 
D-|---------------------------------------------------------| 

    walking  away  all   they    can  do 
D-|0-----0--0----0--0-----0-0-0------0--0-----0--0----0-0-0-| 
A-|0-----0--0----0--0-----0-0-0------0--0-----0--0----0-0-0-| 
F#|0-----0--0----0--0-----0-0-0------0--0-----0--0----0-0-0-| 
D-|0-----0--0----0--0---------------------------------------| 
A-|4/5---5--5----------5--------0h4-------4--------4--------| 
D-|---------------------------------------------------------| 

 is cry 
D-|------0--0----0--0-----0-0-0------0--0-----0--0----0-0-0-| 
A-|------0--0----0--0-----0-0-0------0--0-----0--0----0-0-0-| 
F#|------0--0----0--0-----0-0-0------0--0-----0--0----0-0-0-| 
D-|---------------------------------------------------------| 
A-|0h2--------2--------2--------0h4-------4--------4--------| 
D-|---------------------------------------------------------| 

         And hope maybe,             that they?ll      catch 
D-|--0-------------------------------------------0----------| 
A-|--x-------------------------------------------0----------| 
F#|--5-------------------------------------------7----------| 
D-|--5-------------------------------------------7----------| 
A-|--x-------------------------------------------x----------| 
D-|--5-------------------------------------------7----------| 

    your eye 
D-|0-----0--0----0--0-----0-0-0------0--0-----0--0----0-0-0-| 
A-|0-----0--0----0--0-----0-0-0------0--0-----0--0----0-0-0-| 
F#|0-----0--0----0--0-----0-0-0------0--0-----0--0----0-0-0-| 
D-|0-----0--0----0--0---------------------------------------| 
A-|4/5---5--5----------5--------0h4-------4--------4--------| 
D-|---------------------------------------------------------| 

D-|------0--0----0--0-----0-0-0------0--0-----0--0----0-0-0-| 
A-|------0--0----0--0-----0-0-0------0--0-----0--0----0-0-0-| 
F#|------0--0----0--0-----0-0-0------0--0-----0--0----0-0-0-| 
D-|---------------------------------------------------------| 
A-|0h2--------2--------2--------0h4-------4--------4--------| 
D-|---------------------------------------------------------| 

D-|0-----0----------0--0--0-----0-----0----0-----0--0--0----| 
A-|0-----0----0-----0--0--0-----0-----0----0-----0--0--0----| 
F#|0-----0----0-----0--0--0-----0-----0----0-----0--0--0----| 
D-|0-----0----0-----0--0--0-----0-----0----0-----0--0--0----| 
A-|4/5---5----5-----5--5--5-----0h4---4----4-----4--4--4----| 
D-|---------------------------------------------------------| 

D-|0-----0----------0--0--0-----0-----0----0-----0--0--0----| 
A-|0-----0----0-----0--0--0-----0-----0----0-----0--0--0----| 
F#|0-----0----0-----0--0--0-----0-----0----0-----0--0--0----| 
D-|0-----0----0-----0--0--0-----0-----0----0-----0--0--0----| 
A-|0h2---2----2-----2--2--2-----0h4---4----4-----4--4--4----| 
D-|---------------------------------------------------------| 

   So forget our drugs and leave our rock and roll aside, It 
D-|0-----0----------0--0--0-----0-----0----0-----0--0--0----| 
A-|0-----0----0-----0--0--0-----0-----0----0-----0--0--0----| 
F#|0-----0----0-----0--0--0-----0-----0----0-----0--0--0----| 
D-|0-----0----0-----0--0--0-----0-----0----0-----0--0--0----| 
A-|4/5---5----5-----5--5--5-----0h4---4----4-----4--4--4----| 
D-|---------------------------------------------------------| 

 aint helping us get through 
D-|0-----0----------0--0--0-----0-----0----0-----0--0--0----| 
A-|0-----0----0-----0--0--0-----0-----0----0-----0--0--0----| 
F#|0-----0----0-----0--0--0-----0-----0----0-----0--0--0----| 
D-|0-----0----0-----0--0--0-----0-----0----0-----0--0--0----| 
A-|0h2---2----2-----2--2--2-----0h4---4----4-----4--4--4----| 
D-|---------------------------------------------------------| 

It?s love that gets us through its  time that makes us due 
D-|0-----0----------0--0--0-----0-----0----0-----0--0--0----| 
A-|0-----0----0-----0--0--0-----0-----0----0-----0--0--0----| 
F#|0-----0----0-----0--0--0-----0-----0----0-----0--0--0----| 
D-|0-----0----0-----0--0--0-----0-----0----0-----0--0--0----| 
A-|4/5---5----5-----5--5--5-----0h4---4----4-----4--4--4----| 
D-|---------------------------------------------------------| 

   Were all leaving soon, who needs a grave who need a tomb 
D-|0-----0----------0--0--0-----0-----0----0-----0--0--0----| 
A-|0-----0----0-----0--0--0-----0-----0----0-----0--0--0----| 
F#|0-----0----0-----0--0--0-----0-----0----0-----0--0--0----| 
D-|0-----0----0-----0--0--0-----0-----0----0-----0--0--0----| 
A-|0h2---2----2-----2--2--2-----0h4---4----4-----4--4--4----| 
D-|---------------------------------------------------------| 

         But for now?                        I am gonna miss 
D-|--0-----------------------------------------0--0----0----| 
A-|--x-----------------------------------------x--0----0----| 
F#|--5-----------------------------------------5--7----7----| 
D-|--5-----------------------------------------5--7----7----| 
A-|--x-----------------------------------------x--x----x----| 
D-|--5-----------------------------------------5--7----7----| 

    you 
D-|0-----0----------0-----0-----0-----0----0-----0-----0----| 
A-|0-----0----0-----0-----0-----0-----0----0-----0-----0----| 
F#|0-----0----0-----0-----0-----0-----0----0-----0-----0----| 
D-|0-----0----0-----0-----0-----0-----0----0-----0-----0----| 
A-|4/5---5----5-----5-----5-----0h4---4----4-----4-----4----| 
D-|---------------------------------------------------------| 

D-|0-----0----------0-----0-----0-----0----0-----0-------x--| 
A-|0-----0----0-----0-----0-----0-----0----0-----0-------x--| 
F#|0-----0----0-----0-----0-----0-----0----0-----0-------x--| 
D-|0-----0----0-----0-----0-----0-----0----0-----0-------x--| 
A-|0h2---2----2-----2-----2-----0h4---4----4-----4-------x--| 
D-|---------------------------------------------------------| 

        Na    na na    naaa           na    na na   naaaa 
D-|0-----0----------0--0--0-----0-----0----0-----0--0--0----| 
A-|0-----0----0-----0--0--0-----0-----0----0-----0--0--0----| 
F#|0-----0----0-----0--0--0-----0-----0----0-----0--0--0----| 
D-|0-----0----0-----0--0--0-----0-----0----0-----0--0--0----| 
A-|4/5---5----5-----5--5--5-----0h4---4----4-----4--4--4----| 
D-|---------------------------------------------------------| 

     Naaaaaaaa                              yeaaaaaaa 
D-|0-----0----------0--0--0-----0-----0----0-----0--0--0----| 
A-|0-----0----0-----0--0--0-----0-----0----0-----0--0--0----| 
F#|0-----0----0-----0--0--0-----0-----0----0-----0--0--0----| 
D-|0-----0----0-----0--0--0-----0-----0----0-----0--0--0----| 
A-|0h2---2----2-----2--2--2-----0h4---4----4-----4--4--4----| 
D-|---------------------------------------------------------| 

                                                         Naa 
D-|0-----0----------0--0--0-----0-----0----0-----0--0--0----| 
A-|0-----0----0-----0--0--0-----0-----0----0-----0--0--0----| 
F#|0-----0----0-----0--0--0-----0-----0----0-----0--0--0----| 
D-|0-----0----0-----0--0--0-----0-----0----0-----0--0--0----| 
A-|4/5---5----5-----5--5--5-----0h4---4----4-----4--4--4----| 
D-|---------------------------------------------------------| 

    Naaaaaa   naaa       naa naa   naaaaa   na    naaaa 
D-|0-----0----------0--0--0-----0-----0----0-----0--0--0----| 
A-|0-----0----0-----0--0--0-----0-----0----0-----0--0--0----| 
F#|0-----0----0-----0--0--0-----0-----0----0-----0--0--0----| 
D-|0-----0----0-----0--0--0-----0-----0----0-----0--0--0----| 
A-|0h2---2----2-----2--2--2-----0h4---4----4-----4--4--4----| 
D-|---------------------------------------------------------| 

                 Na    naaaaaaaaaa                     na   na 
D-|0-----0----------0--0--0-----0-----0----0-----0--0--0----| 
A-|0-----0----0-----0--0--0-----0-----0----0-----0--0--0----| 
F#|0-----0----0-----0--0--0-----0-----0----0-----0--0--0----| 
D-|0-----0----0-----0--0--0-----0-----0----0-----0--0--0----| 
A-|4/5---5----5-----5--5--5-----0h4---4----4-----4--4--4----| 
D-|---------------------------------------------------------| 

D-|0-----0----------0--0--0-----0-----0----0-----0--0--0----| 
A-|0-----0----0-----0--0--0-----0-----0----0-----0--0--0----| 
F#|0-----0----0-----0--0--0-----0-----0----0-----0--0--0----| 
D-|0-----0----0-----0--0--0-----0-----0----0-----0--0--0----| 
A-|0h2---2----2-----2--2--2-----0h4---4----4-----4--4--4----| 
D-|---------------------------------------------------------| 

      Let?s all lock arms and      shout to the sun      hey 
D-|0-----0----------0--0--0-----0-----0----0-----0--0--0----| 
A-|0-----0----0-----0--0--0-----0-----0----0-----0--0--0----| 
F#|0-----0----0-----0--0--0-----0-----0----0-----0--0--0----| 
D-|0-----0----0-----0--0--0-----0-----0----0-----0--0--0----| 
A-|4/5---5----5-----5--5--5-----0h4---4----4-----4--4--4----| 
D-|---------------------------------------------------------| 

    look god  what  we   have   done 
D-|0-----0----------0--0--0-----0-----0----0-----0--0--0----| 
A-|0-----0----0-----0--0--0-----0-----0----0-----0--0--0----| 
F#|0-----0----0-----0--0--0-----0-----0----0-----0--0--0----| 
D-|0-----0----0-----0--0--0-----0-----0----0-----0--0--0----| 
A-|0h2---2----2-----2--2--2-----0h4---4----4-----4--4--4----| 
D-|---------------------------------------------------------| 

      It?s  finally  come   together                 just in 
D-|0-----0----------0--0--0-----0-----0----0-----0--0--0----| 
A-|0-----0----0-----0--0--0-----0-----0----0-----0--0--0----| 
F#|0-----0----0-----0--0--0-----0-----0----0-----0--0--0----| 
D-|0-----0----0-----0--0--0-----0-----0----0-----0--0--0----| 
A-|4/5---5----5-----5--5--5-----0h4---4----4-----4--4--4----| 
D-|---------------------------------------------------------| 

    time          to   come      undone 
D-|0-----0----------0--0--0-----0-----0----0-----0--0--0----| 
A-|0-----0----0-----0--0--0-----0-----0----0-----0--0--0----| 
F#|0-----0----0-----0--0--0-----0-----0----0-----0--0--0----| 
D-|0-----0----0-----0--0--0-----0-----0----0-----0--0--0----| 
A-|0h2---2----2-----2--2--2-----0h4---4----4-----4--4--4----| 
D-|---------------------------------------------------------| 

Even if victory isn?t written in our stars and boards   we?ve still 
D-|--0-----------------------------------------0--0---------| 
A-|--x-----------------------------------------x--0---------| 
F#|--5-----------------------------------------5--7---------| 
D-|--5-----------------------------------------5--7---------| 
A-|--x-----------------------------------------x--x---------| 
D-|--5-----------------------------------------5--7---------| 

    won 
D-|0-----0----------0--0--0-----0-----0----0-----0--0--0----| 
A-|0-----0----0-----0--0--0-----0-----0----0-----0--0--0----| 
F#|0-----0----0-----0--0--0-----0-----0----0-----0--0--0----| 
D-|0-----0----0-----0--0--0-----0-----0----0-----0--0--0----| 
A-|4/5---5----5-----5--5--5-----0h4---4----4-----4--4--4----| 
D-|---------------------------------------------------------| 


D-|0-----0----------0--0--0-----0-----0----0-----0--0--0----| 
A-|0-----0----0-----0--0--0-----0-----0----0-----0--0--0----| 
F#|0-----0----0-----0--0--0-----0-----0----0-----0--0--0----| 
D-|0-----0----0-----0--0--0-----0-----0----0-----0--0--0----| 
A-|0h2---2----2-----2--2--2-----0h4---4----4-----4--4--4----| 
D-|---------------------------------------------------------| 

We?re gonna touch the wall of our childhood,    and then were gonna 
D-|--0----------------------------------------0-------------| 
A-|--x----------------------------------------0-------------| 
F#|--5----------------------------------------7-------------| 
D-|--5----------------------------------------7-------------| 
A-|--x----------------------------------------x-------------| 
D-|--5----------------------------------------7-------------| 

     run 
D-|------0-------0--------0---0------0--------0-------0-0-0-| 
A-|---------0-------0-------0-----------0--------0----0-0-0-| 
F#|---------------------------------------------------------| 
D-|---------------------------------------------------------| 
A-|--5--------5--------5--------h4--------4--------4--------| 
D-|---------------------------------------------------------| 

D-|------0-------0--------0-0-0-----0-0--0------0-0---------| 
A-|---------0-------0-------0-0-----0-0--0------0-0---------| 
F#|---------------------------------0-0--0------0-0---------| 
D-|---------------------------------------------------------| 
A-|0h2--------2--------2---------2--------------------------| 
D-|--------------------------------------------2-----2b-r---| 

D-|-----------------------0---0------0--------0-------0-0-0-| 
A-|---------0---------------0-----------0--------0----0-0-0-| 
F#|-----0-0-0-----------------------------------------------| 
D-|-----0-0-0-----------------------------------------------| 
A-|-----0-0-0-0h5------5--------h4--------4--------4--------| 
D-|--0------------------------------------------------------| 

D-|------0-------0--------0-0-0-----0-0----0------0-0----0--| 
A-|---------0-------0-------0-0-----0-0----0------0-0----0--| 
F#|---------------------------------0-0----0------0-0----0--| 
D-|---------------------------------------------------------| 
A-|0h2--------2--------2------------------------------------| 
D-|------------------------------5------2-----/4-----\2-----| 

             Touch the wall of our childhood 
D-|-------0---0-----0--0---0-0-0-----0--0-----0--0----0-0-0-| 
A-|-----0-0-0-0-----0--0---0-0-0-----0--0-----0--0----0-0-0-| 
F#|-----0-0-0-0-----0--0---0-0-0-----0--0-----0--0----0-0-0-| 
D-|--0--0-0-0-0-----0--0---0-0-0----------------------------| 
A-|--0--0-0-0-0h5--------5------h4--------4--------4--------| 
D-|--0------------------------------------------------------| 

                                             And then were gonna 
D-|------0--0----0--0-----0-0-0--0------------------0-------| 
A-|------0--0----0--0-----0-0-0--x------------------0-------| 
F#|------0--0----0--0-----0-0-0--5------------------7-------| 
D-|------------------------------5------------------7-------| 
A-|0h2--------2--------2---------x------------------x-------| 
D-|------------------------------5------------------7-------| 

    run 
D-|-----------------------0---0------0--------0-------0-0-0-| 
A-|---------0---------------0-----------0--------0----0-0-0-| 
F#|-----0-0-0-----------------------------------------------| 
D-|-----0-0-0-----------------------------------------------| 
A-|-----0-0-0-0h5------5--------h4--------4--------4--------| 
D-|--0------------------------------------------------------| 

D-|------0-------0--------0-0-0-----0-0----0------0-0----0--| 
A-|---------0-------0-------0-0-----0-0----0------0-0----0--| 
F#|---------------------------------0-0----0------0-0----0--| 
D-|---------------------------------------------------------| 
A-|0h2--------2--------2------------------------------------| 
D-|------------------------------5------2-----/4-----\2-----| 

      So here we are 18,                   wondering where the 
D-|------0-------0--------0---0------0--------0-------0-0-0-| 
A-|---------0-------0-------0-----------0--------0----0-0-0-| 
F#|---------------------------------------------------------| 
D-|---------------------------------------------------------| 
A-|--5--------5--------5--------h4--------4--------4--------| 
D-|---------------------------------------------------------| 

    days   have   gone 
D-|------0-------0--------0---0------0--------0-------0---0-| 
A-|---------0-------0-------0-----------0--------0------0---| 
F#|---------------------------------------------------------| 
D-|---------------------------------------------------------| 
A-|0h2--------2--------2--------h4--------4--------4--------| 
D-|---------------------------------------------------------| 

     Looking down a long highway,        nothing ahead but the 
D-|------0-------0--------0---0------0--------0-------0-0-0-| 
A-|---------0-------0-------0-----------0--------0----0-0-0-| 
F#|---------------------------------------------------------| 
D-|---------------------------------------------------------| 
A-|--5--------5--------5--------h4--------4--------4--------| 
D-|---------------------------------------------------------| 

    red   sun 
D-|------0-------0--------0---0------0--------0-------0---0-| 
A-|---------0-------0-------0-----------0--------0------0---| 
F#|---------------------------------------------------------| 
D-|---------------------------------------------------------| 
A-|0h2--------2--------2--------h4--------4--------4--------| 
D-|---------------------------------------------------------| 

   So exchange your last looks,                     walk on a 
D-|------0-------0--------0---0------0--------0-------0-0-0-| 
A-|---------0-------0-------0-----------0--------0----0-0-0-| 
F#|---------------------------------------------------------| 
D-|---------------------------------------------------------| 
A-|--5--------5--------5--------h4--------4--------4--------| 
D-|---------------------------------------------------------| 

    field   for  lost   times 
D-|------0-------0--------0---0------0--------0-------0---0-| 
A-|---------0-------0-------0-----------0--------0------0---| 
F#|---------------------------------------------------------| 
D-|---------------------------------------------------------| 
A-|0h2--------2--------2--------h4--------4--------4--------| 
D-|---------------------------------------------------------| 

    Forever isn?t a measurement of time 
D-|------0-------0--------0---0------0--------0-------0-0-0-| 
A-|---------0-------0-------0-----------0--------0----0-0-0-| 
F#|---------------------------------------------------------| 
D-|---------------------------------------------------------| 
A-|--5--------5--------5--------h4--------4--------4--------| 
D-|---------------------------------------------------------| 

D-|------0-------0--------0---0------0--------0-------0-0-0-| 
A-|---------0-------0-------0-----------0--------0----0-0-0-| 
F#|---------------------------------------------------------| 
D-|---------------------------------------------------------| 
A-|0h2--------2--------2---------2--------2--------0--------| 
D-|---------------------------------------------------------| 

     Forever isn?t a measurement of time 
D-|------0-------0--------0---0------0--------0-------0-0-0-| 
A-|---------0-------0-------0-----------0--------0----0-0-0-| 
F#|---------------------------------------------------------| 
D-|---------------------------------------------------------| 
A-|--5--------5--------5--------h4--------4--------4--------| 
D-|---------------------------------------------------------| 

D-|------0-------0--------0---0------0--------0-------0---0-| 
A-|---------0-------0-------0-----------0--------0------0---| 
F#|---------------------------------------------------------| 
D-|---------------------------------------------------------| 
A-|0h2--------2--------2---------2--------2--------2--------| 
D-|---------------------------------------------------------| 

          It simply means memories                   for our 
D-|--0-------------------------------------------0----------| 
A-|--x-------------------------------------------0----------| 
F#|--5-------------------------------------------7----------| 
D-|--5-------------------------------------------7----------| 
A-|--x-------------------------------------------x----------| 
D-|--5-------------------------------------------7----------| 

    kind 
D-|------0-------0--------0---0------0--------0-------0-0-0-| 
A-|---------0-------0-------0-----------0--------0----0-0-0-| 
F#|---------------------------------------------------------| 
D-|---------------------------------------------------------| 
A-|--5--------5--------5---------4--------4--------4--------| 
D-|---------------------------------------------------------| 

D-|------0-------0--------0-0-0-------0--0-------0-0--------| 
A-|---------0-------0-------0-0-------0--0-------0-0--------| 
F#|-----------------------------------0--0-------0-0--------| 
D-|---------------------------------------------------------| 
A-|0h2--------2--------2---------2p0------------------------| 
D-|-----------------------------------------2--2-----2/4----| 

                   For 
D-|-----------------------0---0------0--------0-------0-0-0-| 
A-|---------0---------------0-----------0--------0----0-0-0-| 
F#|-----0-0-0-----------------------------------------------| 
D-|-----0-0-0-----------------------------------------------| 
A-|-----0-0-0-0h5------5--------h4--------4--------4--------| 
D-|--0------------------------------------------------------| 

                     our     kind 
D-|------0-------0--------0-0-0-----0-0----0------0-0----0--| 
A-|---------0-------0-------0-0-----0-0----0------0-0----0--| 
F#|---------------------------------0-0----0------0-0----0--| 
D-|---------------------------------------------------------| 
A-|0h2--------2--------2------------------------------------| 
D-|------------------------------5------2-----/4-----\2-----| 

                 May   twenty seventh 
D-|-----------------------0---0------0--------0-------0-0-0-| 
A-|---------0---------------0-----------0--------0----0-0-0-| 
F#|-----0-0-0-----------------------------------------------| 
D-|-----0-0-0-----------------------------------------------| 
A-|-----0-0-0-0h5------5--------h4--------4--------4--------| 
D-|--0------------------------------------------------------| 

                              Nineteen     ninety      nine 
D-|------0-------0--------0-0-0-----0-0----0------0-0----0--| 
A-|---------0-------0-------0-0-----0-0----0------0-0----0--| 
F#|---------------------------------0-0----0------0-0----0--| 
D-|---------------------------------------------------------| 
A-|0h2--------2--------2------------------------------------| 
D-|------------------------------5------2-----/4-----\2-----| 


D-|-----------------------0---0------0--------0-------0-0-0-| 
A-|---------0---------------0-----------0--------0----0-0-0-| 
F#|-----0-0-0-----------------------------------------------| 
D-|-----0-0-0-----------------------------------------------| 
A-|-----0-0-0-0h5------5--------h4--------4--------4--------| 
D-|--0------------------------------------------------------| 


D-|------0-------0--------0-0-0-----0-0----0------0-0----0--| 
A-|---------0-------0-------0-0-----0-0----0------0-0----0--| 
F#|---------------------------------0-0----0------0-0----0--| 
D-|---------------------------------------------------------| 
A-|0h2--------2--------2------------------------------------| 
D-|------------------------------5------2-----/4-----\2-----| 

D-|--0------------------------------------------------------| 
A-|--0------------------------------------------------------| 
F#|--0------------------------------------------------------| 
D-|--0------------------------------------------------------| 
A-|--0------------------------------------------------------| 
D-|--0------------------------------------------------------| 

Cheers guys, all the best 

Dave 

************************************************************ 

H ? hammer on 
P ? pull off 
/ - slide up 
\ - slide down 
X ? neck hand mute 
B ? bend 
R ? release bend 
Hb ? half bend 

************************************************************ 
		  

See also:

tabs Simon & Garfunkel - Sounds of silence tabs The Strokes - Juicebox tabs John Mayer - Belief tabs Guns N' Roses - Sweet Child o' mine tabs Guns N' Roses - November Rain tabs Foo Fighters - Everlong (acústico)
e-chords

Other versions:

tabs Justin Vernon - May 27th 1999 523 Am
auto scroll beats size up size down change color hide chords drawings
tab show chords e-chords YouTube Clip e-chords hide all tabs e-chords go to top tab

share