Justin Vernon

Drinking This Rain I'm On Fire

Justin Vernon

tabs

by  CARLLUZ

save to print version add songbook text version e-mail correct tuner
chordsukulelecavacokeyboardtabbassdrumsharmonicaflute Guitar Pro
close

there isn't a video lesson for this song

chords

Drinking This Rain I'm On Fire

	  		
Intro/Verse             Chorus     
      
  D  G  A  D          Bm G  D  A 
e|----------|        |----------| 
B|3--3--2--3|        |3--3--3--2| 
G|2--2--2--2|        |---2--2--2| 
D|0-----2--0|        |4-----0--2| 
A|----------|        |2---------| 
E|---3------|        |---3------| 

Intro 

e|----------------------------------------------------------------| 
B|------3----------3---------------3-------3-------3-------3------| 
G|--2-------2---------2---2----2-------2-------2-------2----------| 
D|0---0---0---0---0-----0-----------------------------------------| 
A|----------------------------------------------------------------| 
E|---------------------------3---3---3---3---3---3---3---3--------| 


e|----------------------------------------------------------------| 
B|------2-------2-------2-------3-------3-------3-------3---------| 
G|--2-------2-------2-------2-------2-------2-------2-------------| 
D|2---2---2---2---2---2---2---2---0---0---0---0---0---0---0-------| 
A|----------------------------------------------------------------| 
E|----------------------------------------------------------------| 


e|------0--------h2------------2-------0--------------------------| 
B|-------------------------3-------------------3------------------| 
G|--2-------2----------2-----------2-------2----------------------| 
D|0---0---0---0------0---0---0---0---0---0---0--------------------| 
A|----------------------------------------------------------------| 
E|----------------------------------------------------------------| 


e|----------------------------------------------------------------| 
B|------3-------3-------3-------3-------2-------2-------2-------2-| 
G|--2-------2-------2-------2-------2-------2-------2-------2-----| 
D|----------------------------------------------------------------| 
A|--------------------------------2---2---2---2---2---2---2---2---| 
E|3---3---3---3---3---3---3---3-----------------------------------| 


e|-------------------------------------h2p-----h2-------2--5--2--0| 
B|------3-------3-------3-------3---------------------------------| 
G|--2-------2-------2-------2-------2-------2-------2-------------| 
D|0---0---0---0---0---0---0---0---0---0---0---0---0---0--0--0--0--| 
A|----------------------------------------------------------------| 
E|----------------------------------------------------------------| 


e|----------------------------------------------------------------| 
B|3------3-------3-------3-------3-------2-------2-------2-------2| 
G|----2-------2-------2-------2------2-------2-------2-------2----| 
D|----------------------------------------------------------------| 
A|---------------------------------2---2---2---2---2---2---2---2--| 
E|--3---3---3---3---3---3---3---3---------------------------------| 


Verse  

e|----------------------------------------------------------------| 
B|------3-------3-------3-------3-------3-------3-------3-------3-| 
G|--2-------2-------2-------2-------2-------2-------2-------2-----| 
D|0---0---0---0---0---0---0---0-----------------------------------| 
A|----------------------------------------------------------------| 
E|--------------------------------3---3---3---3---3---3---3---3---| 


e|----------------------------------------------------------------| 
B|------2-------2-------2-------3-------3-------3-------3-------3-| 
G|--2-------2-------2-------2-------2-------2-------2-------2-----| 
D|2---2---2---2---2---2---2---2---0---0---0---0---0---0---0---0---| 
A|----------------------------------------------------------------| 
E|----------------------------------------------------------------| 

Chorus 

e|----------------------------------------------------------------| 
B|------3-------3-------3-------3-------3-------3-------3-------3-| 
G|----------------------------------2-------2-------2-------2-----| 
D|--4-------4-------4-------4-------------------------------------| 
A|2---2---2---2---2---2---2---2-----------------------------------| 
E|--------------------------------3---3---3---3---3---3---3---3---| 


e|----------------------------------------------------------------| 
B|------3-------3-------3-------3-------2-------2-------2-------2-| 
G|--2-------2-------2-------2-------2-------2-------2-------2-----| 
D|0---0---0---0---0---0---0---0---2---2---2---2---2---2---2---2---| 
A|----------------------------------------------------------------| 
E|----------------------------------------------------------------|  


************************************ 

| /   slide up 
| \   slide down 
| h   hammer-on 
| p   pull-off 
| ~   vibrato 
| +   harmonic 
| x   Mute note 
| b   Bend 
| pb  Pre-bend 
| br  Bend release 
| pbr Pre-bend release 
| brb Bend release bend 

************************************ 
		  

Full key step upFull key step up
Half key step upHalf key step up
Half key step downHalf key step down
Full key step downFull key step down
hide glossary

See also:

tabs Simon & Garfunkel - Sounds of silence tabs The Strokes - Juicebox tabs John Mayer - Belief tabs Guns N' Roses - Sweet Child o' mine tabs Guns N' Roses - November Rain tabs Foo Fighters - Everlong (acústico)
e-chords

Other versions:

tabs Justin Vernon - Drinking This Rain I'm On Fire
auto scroll beats size up size down change color hide chords drawings
tab show chords e-chords YouTube Clip e-chords hide all tabs e-chords go to top tab

share