Justin Bieber

Sorry (acoustic)

Justin Bieber

tabs

by  GUSTSILVA

save to print version add songbook text version e-mail correct tuner
chordsukulelecavacokeyboardtabbassdrumsharmonicaflute Guitar Pro
close

there isn't a video lesson for this song

chords

Sorry (acoustic)

	  		 
 

This is the acoustic version that Justin Bieber has posted on his youtube channel featuring Skrillex 
The tuning is quite strange but allows Skillrex to play just power chords whilst playing open strings. 

Tuning:F Bb Eb G Eb g 

Verse (Palm mute) 
g |-----------------|-----------------| 
Eb|-----------------|-----------------| 
G |-----------------|-----------------| 
Eb|-5--5--5-9--9--9-|-7--7--7-7--7--7-| 
Bb|-5--5--5-9--9--9-|-7--7--7-7--7--7-| 
F |-3--3--3-7--7--7-|-5--5--5-5--5--5-| 


Chorus 
g |-0--------0------|-0-------0------| 
Eb|-0--------0------|-0-------0------| 
G |-0--------0------|-0-------0------| 
Eb|-5--------9------|-7-------7------| 
Bb|-5--------9------|-7-------7------| 
F |-3--------7------|-5-------5------| x3 

g |-0---------------|-0-------0------| 
Eb|-0---------------|-0-------0------| 
G |-1---------------|-0-------0------| 
Eb|-2---------------|-5-------7------| 
Bb|-2---------------|-5-------7------| 
F |-0-x16-----------|-3-x8----5-x8---|

Tabbed by : Dave Tran 
instagram : davetran  
		  

Full key step upFull key step up
Half key step upHalf key step up
Half key step downHalf key step down
Full key step downFull key step down
hide glossary

See also:

tabs Justin Bieber - Eenie Meenie tabs Fefe Dobson - Everything tabs Leonard Cohen - You Know Who I Am tabs Half Moon Run - Give Up tabs Lights - The Pity Scene tabs Carly Rae Jepsen - Drive
e-chords

Other versions:

tabs Third Eye Blind - Sorry tabs Kina Grannis - Sorry tabs Justin Bieber - Sorry tabs As It Is - Sorry tabs Justin Bieber - Sorry (acoustic) tabs Justin Bieber - Sorry (ver. 2)
auto scroll beats size up size down change color hide chords drawings
tab show chords e-chords YouTube Clip e-chords hide all tabs e-chords go to top tab

share