Jurassic Shark

Carver Tab

Jurassic Shark

Difficulty: nolevelnolevel

by tamamoreira

tuner correct add songbook print version text version save to e-mail
chordsukulelecavacokeyboardtabbassdrumsharmonicsflute Guitar Pro
close

there isn't a video lesson for this song

request
chords

Carver

  		Intro 

Guitar 1: 
e|---0-0-0-0-0-0-0-0-0-0-0-0-0-0-0-0-----------------------------------------| 
B|--5-5-5-5-4-4-2-2-5-5-5-5-4-4-2-2------------------------------------------| 
G|---------------------------------------------------------------------------| 2x 
D|---------------------------------------------------------------------------| 
A|---------------------------------------------------------------------------| 
E|---------------------------------------------------------------------------| 

e|---0-0-0-0-0-0-0-0-0-0-0-0-0-0-0-0-0-0-0-0-0-0-0-0-0-0-0-0-0-0-0-0---------| 
B|--9-9-9-9-4-4-2-2-9-9-9-9-4-4-2-2-5-5-5-5-4-4-2-2-5-5-5-5-4-4-2-2----------| 
G|---------------------------------------------------------------------------|  2x 
D|---------------------------------------------------------------------------| 
A|---------------------------------------------------------------------------| 
E|---------------------------------------------------------------------------| 


verse 1  

Guitar 1 (Lead): 
e|-------------------------------------------------------------------------------------------| 
B|-----------------------------------------------------------------------------------5-7-5---| 
G|---------------6-4-6-4---------------6-4-------------------6-4-6-4---------------6---------| 
D|-6--6-6--6-6-6---------6--6-6--6-6-6-----6-4-6--6-6--6-6-6---------6--6-6--6-6-6-----------| 
A|-------------------------------------------------------------------------------------------| 
E|-------------------------------------------------------------------------------------------|  
                                                                                               } 
Guitar 2 (Rhythm):                                                                             } 3x 
e|-------------------------------------------------------------------------------------------| } 
B|-------------------------------------------------------------------------------------------|                
G|-1--1-1--1-1-1---------1--1-1--1-1-1---------1--1-1--1-1-1---------1--1-1--1-1-1-----------| 
D|-2--2-2--2-2-2-7-7-7-7-2--2-2--2-2-2-7-7-7-7-2--2-2--2-2-2-7-7-7-7-2--2-2--2-2-2-7-7-7-7---| 
A|-2--2-2--2-2-2-7-7-7-7-2--2-2--2-2-2-7-7-7-7-2--2-2--2-2-2-7-7-7-7-2--2-2--2-2-2-7-7-7-7---| 
E|-0--0-0--0-0-0-5-5-5-5-0--0-0--0-0-0-5-5-5-5-0--0-0--0-0-0-5-5-5-5-0--0-0--0-0-0-5-5-5-5---| 


Chorus 

Guitar 1 (1:07, 1:17): 
e|---------------------------------------------------------------------------| 
B|---------12------------------------------12--------------------------------| 
G|---11/13----13--11h13-11-----------11/13----13--11h13-11----11-------------| 2x (corresponding to  
D|-------------------------14--11-14-----------------------14----14-11-------| timestamps; listen to song for 
A|---------------------------------------------------------------------14-12-| reference) 
E|---------------------------------------------------------------------------| 

Guitar 1, cont'd (1:27) 
e|----------------------------------------------------12---------------------| 
B|--------12------------------------------12----12-14----14------------------| 
G|--11/13----13--11h13-11-----------11/13----13------------------------------| 
D|------------------------14--11-14------------------------------------------| 
A|---------------------------------------------------------------------------| 
E|---------------------------------------------------------------------------| 

Guitar 2 (1:03, 1:12, 1:22, 1:31): 
e|---------------------------------------------------------------------------| 
B|---------------------------------------------------------------------------| 
G|----------------------------------1-1-1-1-1-1-1-1-1-1-1-1-1-1--------------| 4x (corresponding to  
D|-7-7-7-7-7-7-7-7-7-7-7-7-7-7-7-7--2-2-2-2-2-2-2-2-2-2-2-2-2-2--------------| timestamps; listen to song for 
A|-7-7-7-7-7-7-7-7-7-7-7-7-7-7-7-7--2-2-2-2-2-2-2-2-2-2-2-2-2-2--------------| reference) 
E|-5-5-5-5-5-5-5-5-5-5-5-5-5-5-5-5--0-0-0-0-0-0-0-0-0-0-0-0-0-0--------------| 

*single strum E chord during the last repetition instead of strumming!* 

Interlude 

Guitar 1: 
e|---0-0-0-0-0-0-0-0-0-0-0-0-0-0-0-0-0-0-0-0-0-0-0-0-0-0-0-0-0-0-0-0---------| 
B|--5-5-5-5-4-4-2-2-5-5-5-5-4-4-2-2-9-9-9-9-4-4-2-2-9-9-9-9-4-4-2-2----------| 
G|---------------------------------------------------------------------------| 2x 
D|---------------------------------------------------------------------------| 
A|---------------------------------------------------------------------------| 
E|---------------------------------------------------------------------------| 

Guitar 2: 
e|---------------------------------------------------------------------------| 
B|---------------------------------------------------------------------------| 
G|---------1-----------------------------------------------------------------| 
D|---------2--2-2-2-2-2-2-2-2-2-2-2-2-2-2-2-2-2-2-2-2-2-2-2-2-2-2-2-2-2-2-2--| 
A|---------2--2-2-2-2-2-2-2-2-2-2-2-2-2-2-2-2-2-2-2-2-2-2-2-2-2-2-2-2-2-2-2--| 
E|---------0--0-0-0-0-0-0-0-0-0-0-0-0-0-0-0-0-0-0-0-0-0-0-0-0-0-0-0-0-0-0-0--| 
                PM - - - - - - - - - - - - - - - - - - - - - - - - - - - -   

verse 2 

Guitar 1 (Lead): 
e|-------------------------------------------------------------------------------------4--------| 
B|---------------7-5-7-5---------------7-5-------------------7-5-7-5---------------7-5---7------| 
G|----------------------------------------------------------------------------------------------| 
D|-6--6-6--6-6-6---------6--6-6--6-6-6-----6-4-6--6-6--6-6-6---------6--6-6--6-6-6--------------| 
A|----------------------------------------------------------------------------------------------| 
E|----------------------------------------------------------------------------------------------| } 
                                                                                                  } 
Guitar 2 (Rhythm):                                                                                } 3x 
e|----------------------------------------------------------------------------------------------| }  
B|----------------------------------------------------------------------------------------------| } 
G|-1--1-1--1-1-1---------1--1-1--1-1-1---------1--1-1--1-1-1---------1--1-1--1-1-1--------------| 
D|-2--2-2--2-2-2-7-7-7-7-2--2-2--2-2-2-7-7-7-7-2--2-2--2-2-2-7-7-7-7-2--2-2--2-2-2-7-7-7-7------| 
A|-2--2-2--2-2-2-7-7-7-7-2--2-2--2-2-2-7-7-7-7-2--2-2--2-2-2-7-7-7-7-2--2-2--2-2-2-7-7-7-7------| 
E|-0--0-0--0-0-0-5-5-5-5-0--0-0--0-0-0-5-5-5-5-0--0-0--0-0-0-5-5-5-5-0--0-0--0-0-0-5-5-5-5------| 


Chorus 

Guitar 1 (2:31, 2:40): 
e|---------------------------------------------------------------------------| 
B|---------------------------------------------------------------------------| 
G|--9--9--9-11--9-11b13-11-9----9----9--9-11--9-11b13-11-9-------------------| 2x 
D|---11-11-------------------11---11--11-------------------11----------------| 
A|------------------------------------------------------------12-------------| 
E|---------------------------------------------------------------------------| 

Guitar 1 (2:49): 
e|---------------------------------------------------------------------------| 
B|-------------------------------------12----14-12---------------------------| 
G|--9--9--9-11--9-11b13-11-9---9-11/13----13-------13~-----------------------| 
D|---11-11-------------------11----------------------------------------------| 
A|---------------------------------------------------------------------------| 
E|---------------------------------------------------------------------------| 


Guitar 2 (2:25, 2:35, 2:44, 2:54): 
e|---------------------------------------------------------------------------| 
B|---------------------------------------------------------------------------| 
G|----------------------------------1-1-1-1-1-1-1-1-1-1-1-1-1-1--------------| 4x (corresponding to  
D|-7-7-7-7-7-7-7-7-7-7-7-7-7-7-7-7--2-2-2-2-2-2-2-2-2-2-2-2-2-2--------------| timestamps; listen to song for 
A|-7-7-7-7-7-7-7-7-7-7-7-7-7-7-7-7--2-2-2-2-2-2-2-2-2-2-2-2-2-2--------------| reference) 
E|-5-5-5-5-5-5-5-5-5-5-5-5-5-5-5-5--0-0-0-0-0-0-0-0-0-0-0-0-0-0--------------| 

*single strum E chord during the last repetition instead of strumming!* 


Outro 

Guitar 1: 
e|---0-0-0-0-0-0-0-0-0-0-0-0--0--0--0--0-0-----------------------------------| 
B|--5-5-5-5-7-7-7-7-9-9-9-9-10-10-10-10--9------------------------------------| 
G|---------------------------------------------------------------------------| 
D|---------------------------------------------------------------------------| 
A|---------------------------------------------------------------------------| 
E|---------------------------------------------------------------------------| 

Guitar 2: 
e|---------------------------------------------------------------------------| 
B|---------------------------------------------------------------------------| 
G|---------------------------------------1-----------------------------------| 
D|---------------------------------------2-----------------------------------| 
A|---------------------------------------2-----------------------------------| 
E|---------------------------------------0-----------------------------------| 


************************************ 

| h   Hammer-on 
| b   Bend 
| /   Slide up 
| \   Slide down 
| ~   Vibrato 
| PM  Palm mute 

************************************ 
	  

Search Paypal
auto scroll beats size up size down change color hide chords drawings
tab show chords e-chords YouTube Clip e-chords hide all tabs e-chords go to top tab

share with facebook