Julian Casablancas

Where No Eagles Fly

Julian Casablancas

tabs Beginner beginner

by  HUGO_RODRIGUES

save to print version add songbook text version e-mail correct tuner
chordsukulelecavacokeyboardtabbassdrumsharmonicaflute Guitar Pro
close

there isn't a video lesson for this song

chords

Where No Eagles Fly

	  		Julian Casablancas + The Voidz - Where No Eagles Fly 

Intro and Verse: Bass 
E|---------------------------------------------------------------------------| 
B|---------------------------------------------------------------------------| 
G|---------------------------------------------------------------------------| 
D|---------------------------------------------------------------------------| 
A|----------5---55---6666-777------------------------------------------------| 
E|-----------------------------0--00-----------------------------------------| 

Intro and sometimes in the verses: Guitar 
E|------------------------------------------------------------------------------------------------| 
B|------------------------------------------------------------------------------------------------| 
G|------------------------------------------------------------------------------------------------| 
D|-------------------------------------------9--99--7--5-5--4-4-4-444--7-77--5--9--4--2-2-2-------| 
A|----9--99---5--55---777---10--1010--x2 ---------------------------------------------------------| 
E|------------------------------------------------------------------------------------------------| 

Chorus 

B5 G5 Bb5 x5 

Verse 

Breakdown - No guitar 

Chorus x8 

Outro 

C5 G5 B5 E5 x8 

Back to Chorus chords 
		  

Full key step upFull key step up
Half key step upHalf key step up
Half key step downHalf key step down
Full key step downFull key step down
hide glossary

See also:

tabs Incubus - Pardon Me tabs Red Hot Chili Peppers - Otherside (ver. 2) tabs Red Hot Chili Peppers - Scar Tissue (ver. 2) tabs Paramore - The Only Exception tabs Ben Harper - Diamonds on inside tabs Red Hot Chili Peppers - Scar Tissue
e-chords

Other versions:

tabs Julian Casablancas - Where No Eagles Fly
auto scroll beats size up size down change color hide chords drawings
tab show chords e-chords YouTube Clip e-chords hide all tabs e-chords go to top tab

share