Judds

Rockin' With The Rhythm Of The Rain

Judds

tabs Beginner beginner

save to print version add songbook text version e-mail correct tuner
chordsukulelecavacokeyboardtabbassdrumsharmonicaflute Guitar Pro
close

there isn't a video lesson for this song

chords

Rockin' With The Rhythm Of The Rain

	  		[email protected] 
 
Rockin' With The Rhythm Of The Rain - The Judds - Solo 
 
E--|----------------------------------------------------------------|-- 
B--|---------13---------15--17br--17br--13--13--13--13--10------13--|-- 
G--|--13h14------15h16--------------------------------------12------|-- 
D--|----------------------------------------------------------------|-- 
A--|----------------------------------------------------------------|-- 
E--|----------------------------------------------------------------|-- 
 
E--|-----------------------------------|---------------|-- 
B--|---------13--15br--15--13--15--13--|--10p8---------|-- 
G--|--13h14----------------------------|--------9------|-- 
D--|-----------------------------------|-----------10--|-- 
A--|-----------------------------------|---------------|-- 
E--|-----------------------------------|---------------|-- 
 

		  

See also:

tabs Kansas - Carry On My Way Word Son tabs Gillian Welch - Revelator tabs Garth Brooks - Friends In Low Places tabs Rascal Flatts - Fast Cars And Freedom (ver.2) tabs Big & Rich - Save A Horse Ride A Cowboy-correct tabs Bluegrass - Whiskey Before Breakfast
e-chords

Other versions:

tabs Judds - Rockin' With The Rhythm Of The Rain
auto scroll beats size up size down change color hide chords drawings
tab show chords e-chords YouTube Clip e-chords hide all tabs e-chords go to top tab

share