Judds

Grandpa-tell Me A Story

Judds

tabs

save to print version add songbook text version e-mail correct tuner
chordsukulelecavacokeyboardtabbassdrumsharmonicaflute Guitar Pro
close

there isn't a video lesson for this song

chords

Grandpa-tell Me A Story

	  		this song is in the key of E 
 
just follow the chords through out the whole song. 
the whole song goes.. 
 
intro 
 
g----------------------------------------------------- 
d7---77-7--------------------------------------------- 
a--------7---77--------7---77------------------------- 
e---------------7---77-------------------------------- 
 
verse 
g----------------------------------------------------- 
d----------------------------------------------------- 
a7---77--------5-7---77--------567---77-------57---77 
e------7-5---55----------7---77--------75---55-------57--- 
 
g--------------------------------------------------------- 
d--------------------------------------------------------- 
a---57---77----------------------------------------------- 
e77------------------------------------------------------- 
 
chorus 
same rythm as the verse= w ee w ee 
 
but the chorus goes A-E-B-E-A-E-F#-A 
ADD SOME RUN UPS AN U HAVE THE SONG... 
 
 

		  

Full key step upFull key step up
Half key step upHalf key step up
Half key step downHalf key step down
Full key step downFull key step down
hide glossary

See also:

tabs Kansas - Carry On My Way Word Son tabs Gillian Welch - Revelator tabs Garth Brooks - Friends In Low Places tabs Rascal Flatts - Fast Cars And Freedom (ver.2) tabs Big & Rich - Save A Horse Ride A Cowboy-correct tabs Bluegrass - Whiskey Before Breakfast
e-chords

Other versions:

tabs Judds - Grandpa-tell Me A Story
auto scroll beats size up size down change color hide chords drawings
tab show chords e-chords YouTube Clip e-chords hide all tabs e-chords go to top tab

share