Juanes

home > Juanes

Lo que mi gusta a mi Tab

Juanes

Difficulty: nolevelnolevel

by europeu

tuner correct add songbook print version text version save to e-mail
chordsukulelecavacokeyboardtabbassdrumsharmonicsflute Guitar Pro
chords

Lo que mi gusta a mi

  		Intro 
 
 
e |-----------------------------------------------| 
B |---2-2-0---2-2-0---2-2-0----2-2-0-0-2----------| 
G |---------------------------------------2-------| 
D |------------------------------------------4----| 
A |-----------------------------------------------| 
E |-----------------------------------------------| 
 
e |------------------------------------------0------------0----------| 
B |-0-0-0-2-2-0-0--2---------0-0-0-2-2-0-0------4--2--0------4--2--0-| 
G |-------------------2----------------------------------------------| 
D |----------------------4-------------------------------------------| 
A |------------------------------------------------------------------| 
E |------------------------------------------------------------------| 
 
e |-----------------------------------------------| 
B |---2-2-0---2-2-0---2-2-0----2-2-0-0-2----------| 
G |---------------------------------------2-------| 
D |------------------------------------------4----| 
A |-----------------------------------------------| 
E |-----------------------------------------------| 
 
e |------------------------------------------------------------------| 
B |-0-0-0-2-2-0-0--2---------0-0-0-----------------------------------| 
G |-------------------2--------------2-1-----------------------------| 
D |----------------------4----------------4--2-----------------------| 
A |------------------------------------------------------------------| 
E |------------------------------------------------------------------| 
 
 
 
 

	  

Search Paypal
auto scroll beats size up size down change color hide chords drawings
tab show chords e-chords YouTube Clip e-chords hide all tabs e-chords go to top tab