Joyce Manor

The Jerk

Joyce Manor

tabs

by  ROBEPOIEL

save to print version add songbook text version e-mail correct tuner
chordsukulelecavacokeyboardtabbassdrumsharmonicaflute Guitar Pro
close

there isn't a video lesson for this song

chords

The Jerk

	  		VERSE 
e|--------------------------------------| 
B|--------------------------------------| 
G|-----------9-9-9-9--4-4-4-4--8-8-8-8--| 
D|--6-6-6-6--9-9-9-9--4-4-4-4--8-8-8-8--| 
A|--6-6-6-6--7-7-7-7--2-2-2-2--6-6-6-6--| 
E|--4-4-4-4-----------------------------| 

Chorus 
e|------------------------| 
B|------------------------| 
G|--------------4-4-------| 
D|--2--2-2-2-2--4-4--4-4--| 
A|--2--2-2-2-2--2-2--4-4--| 
E|--0--0-0-0-0-------2-2--| 

Chorus PT 2 
e|-----------------------------------------------------| 
B|-----------------------------------------------------| 
G|-----------------------------------------------------| 
D|--2-2-2-2-2-2-2-2-2--4-4-4-4-4-4-4-4-4-4-4-4-4-4-4-4-| 
A|--2-2-2-2-2-2-2-2-2--4-4-4-4-4-4-4-4-4-4-4-4-4-4-4-4-| 
E|--0-0-0-0-0-0-0-0-0--2-2-2-2-2-2-2-2-2-2-2-2-2-2-2-2-| 
PM  |--------------------------------------------------| 

BRIDGE 
e|---------------------------------------------------------------------| 
B|---------------------------------------------------------------------| 
G|--4-4-4-4-4-4-4-4--------------------4-4-4-4-4-4-4-4-----------------| 
D|--4-4-4-4-4-4-4-4--4-4-4-4--2-2-2-2--4-4-4-4-4-4-4-4--4-4-4-4-4-4-4--| 
A|--2-2-2-2-2-2-2-2--4-4-4-4--2-2-2-2--2-2-2-2-2-2-2-2--4-4-4-4-4-4-4--| 
E|-------------------2-2-2-2--0-0-0-0-------------------2-2-2-2-2-2-2--| 

e|----------------------------------------------------------------------| 
B|----------------------------------------------------------------------| 
G|-------------------------------------4-4-4-4-4-4-4-4------------------| 
D|--6-6-6-6-6-6-6-6--4-4-4-4--2-2-2-2--4-4-4-4-4-4-4-4--4-4-4-4---------| 
A|--6-6-6-6-6-6-6-6--4-4-4-4--2-2-2-2--2-2-2-2-2-2-2-2--4-4-4-4--2-4-2--| 
E|--4-4-4-4-4-4-4-4--2-2-2-2--0-0-0-0-------------------2-2-2-2--------4| 

Song Order 
Verse x4 
Chorus x3 
Chorus Pt 2 x1 
Verse x6 
Chorus x3 
Chorus Pt 2 x1 
Bridge x1 
Verse x4  
		  

See also:

tabs Goo Goo Dolls - Name tabs Green Day - blvd of broken dreams tabs Green Day - Holiday (solo) tabs Blink 182 - Adam's Song tabs Green Day - Brain Stew tabs Green Day - Holiday ( Easy Version)
e-chords

Other versions:

tabs Joyce Manor - The Jerk
auto scroll beats size up size down change color hide chords drawings
tab show chords e-chords YouTube Clip e-chords hide all tabs e-chords go to top tab

share