Joyce Manor

End Of The Summer

Joyce Manor

tabs

by  HEBEALMEIDA

save to print version add songbook text version e-mail correct tuner
chordsukulelecavacokeyboardtabbassdrumsharmonicaflute Guitar Pro
close

there isn't a video lesson for this song

chords

End Of The Summer

	  		------------------------------------------------------------------------------- 
                             END OF THE SUMMER - JOYCE MANOR 
------------------------------------------------------------------------------- 
Tabbed by: Maggie Barnett 
E-mail: [email protected] 
This was as accurate a tab as I could do; it's a hard song to pick out 

Tuning: Standard 

Intro + verse 1: Guitar 1 (case closed, that's fine...) 
e|---7-----------------------7-----7---8p7--10-8-7-----7-----7-7-----10-8--8-7-----| 
B|-8---8-----8-8-8-8-8-8-8-8-8----8-8-----8--------8---8-----8-8-8-8------8--------| 
G|-9-----9-7---9-9-9-9-9-9-9-9-7h9-------------------9-9-7h9-9-9-9-9------9--------| 
D|---------------------------------------------------------------------------------| 
A|---------------------------------------------------------------------------------| 
E|---------------------------------------------------------------------------------| 

Guitar 1 Cont. 
e|-------------------7-7-7-7-7-7-7-7-7-7--------7-7-------------------------------| 
B|-8-10-----8--------8-8-7-8-8-7-8-8-7-8-10-8-7-8-8-------------------------------| 
G|-----9--7---9------9-9-9-9-9-9-9-9-9-9-9----9-9-9-------------------------------| 
D|------9-------------------------------------------------------------------------| 
A|--------------------------------------------------------------------------------| 
E|--------------------------------------------------------------------------------| 

Intro + verse 1 : Guitar 2 
e|------------------------------------------------------------------------------| 
B|----------------------------------------3-------------------------------------| 
G|---4-0--------------4--2-4-2--0--2-0-2-4--5-4-4--0-2-0-2--4--4-4-4-----4-4-4--| 
D|-2------0h2-0-2-----5--4-5-4--2--2-2-2-2----2-2--2-2-2-2--5--5-5-5--2--5-5-5--| 
A|--------------------5----5-5--2--2-2-2-3----3-3--2-2-2-2--5--5-5-5--2--5-5-5--| 
E|--------------------3----3--------------------------------3--3-3-3--0--3-3-3--| 

Guitar 2: Cont 
e|---------------------------------------------------------------------------| 
B|---------------------3-----------------------------------------------------| 
G|-4--4-4-4--4--4-4-2--4-----------------------------------------------------| 
D|-2--2-2-2--x--x-x-x--5-----------------------------------------------------| 
A|-3--3-3-3--2--2-x-0--5-----------------------------------------------------| 
E|---------------------3-----------------------------------------------------| 

(bass break) 

Guitar 1: I start to feel it.... 
e|--------------------------------------------------------------------------------| 
B|--------------------------------------------------------------------------------| 
G|-12-12-12-12-12-12-12-11-11-9-9-9-9-9-9-12-12-9-9-9-9-9-9-4-4-7-7-7-7-7-7-5-5---| 
D|-x--x--x--x--x--x--x--x--x--x-x-x-x-x-x-x--x--x-x-x-x-x-x-x-x-x-x-x-x-x-x-x-x---| x4 
A|-10-10-10-10-10-10-10-9--9--7-7-7-7-7-7-10-10-7-7-7-7-7-7-2-2-5-5-5-5-5-5-3-3---| 
E|--------------------------------------------------------------------------------| 

Guitar 2: I start to feel it.... 
e|--------------------------------------------------------------------------------| 
B|--------------------------------------------------------------------------------| 
G|-4-4-4-4-4-4-4-4-4-4-4-4-4-4-4-4-4-4-4-4-4-4-4-4-4-4-4-4-4-4-4-4-4-4-4-4-4-4----| 
D|-x-x-x-x-x-x-x-x-x-x-x-x-x-x-x-x-x-x-x-x-x-x-x-x-x-x-x-x-x-x-x-x-x-x-x-x-x-x----|x4 
A|-2-2-2-2-2-2-2-2-2-2-2-2-2-2-2-2-2-2-2-2-2-2-2-2-2-2-2-2-2-2-2-2-2-2-2-2-2-2----| 
E|--------------------------------------------------------------------------------| 

Outro: Guitar 1: Case closed, that's fine 
e|---------------------------------------------------------------------------| 
B|---------------------------------------------------------------------------| 
G|-4-4-4-4-4-4-4-4-4-4-4-2-2-2-2-2-2-2-2-2-2-2-------------------------------| 
D|-x-x-5-5-5-5-4-4-4-4-4-4-4-4-4-4-4-4-4-4-4-4-------------------------------|x2 
A|-2-2-2-2-2-2-2-2-2-2-2-2-2-2-2-2-2-2-2-2-2-2-------------------------------| 
E|---------------------------------------------------------------------------| 

Outro: Guitar 2: 
e|---------------------------------------------------------------------------| 
B|---------------------------------------------------------------------------| 
G|-4-4-4-4-4-4-4-4-4-4-4-4-4-4-4-4-4-4-4-4-4-4-------------------------------| 
D|-x-x-x-x-x-x-x-x-x-x-x-x-x-x-x-x-x-x-x-x-x-x-------------------------------|x2 
A|-2-2-2-2-2-2-2-2-2-2-2-2-2-2-2-2-2-2-2-2-2-2-------------------------------| 
E|---------------------------------------------------------------------------| 

Ending note: Guitar 1 
e|---------------------| 
B|---------------------| 
G|-4-------------------| 
D|-x-------------------| 
A|-2-------------------| 
E|---------------------| 

Ending note: Guitar 2: 
e|---------------------| 
B|-3-------------------| 
G|-4-------------------| 
D|-5-------------------| 
A|-5-------------------| 
E|-3-------------------| 


************************************ 

| /   slide up 
| \   slide down 
| h   hammer-on 
| p   pull-off 
| ~   vibrato 
| +   harmonic 
| x   Mute note 
| b   Bend 
| pb  Pre-bend 
| br  Bend release 
| pbr Pre-bend release 
| brb Bend release bend 

************************************ 
		  

See also:

tabs Blink 182 - All The Small Things (ver. 3) tabs Green Day - Holiday (solo) tabs Green Day - Wake Me Up When September Ends tabs Blink 182 - I miss you (ver. 2) tabs Green Day - Brain Stew tabs Green Day - When I Come Around
e-chords

Other versions:

tabs Joyce Manor - End Of The Summer
auto scroll beats size up size down change color hide chords drawings
tab show chords e-chords YouTube Clip e-chords hide all tabs e-chords go to top tab

share