Joyce Manor

home > Joyce Manor

21st Dead Rats Tab

Joyce Manor

Difficulty: nolevelnolevel

by marcnagel

tuner correct add songbook print version text version save to e-mail
chordsukulelecavacokeyboardtabbassdrumsharmonicsflute Guitar Pro
chords

21st Dead Rats

  		
Intro: 
e|--------------------------------------------------------------| 
B|--------------------------------------------------------------| 
G|--------------------------------------------------------------| 
D|--------------------------------------------------------------| 
A|-7--7--77-7-7-7-2--2--22-2-2-2-4--4--44-4-4-4-2--2--22-2-2-2--| 
E|-5--5--55-5-5-5-0--0--00-0-0-0-2--2--22-2-2-2-0--0--00-0-0-0--| 
   pm .  .. . . . .  .  .. . . . .  .  .. . . . .  .  .. . . . 


Verse 1: x2 
e|------------------------------------------------------------------| 
B|------------------------------------------------------------------| 
G|------------------------------------------------------------------| 
D|-7-7-7-7-7-7-7-7-2-2-2-2-2-2-2-2-4-4-4-4-4-4-4-4-2-2-2-2-2-2-2-2--| 
A|-7-7-7-7-7-7-7-7-2-2-2-2-2-2-2-2-4-4-4-4-4-4-4-4-2-2-2-2-2-2-2-2--| 
E|-5-5-5-5-5-5-5-5-0-0-0-0-0-0-0-0-2-2-2-2-2-2-2-2-0-0-0-0-0-0-0-0--| 
 |                                                                  | 
e|------------------------------------------------------------------| 
B|------------------------------------------------------------------| 
G|-2-2-2-2-2-2-2-2-6-6-6-6-6-6-6-6-9-9-9-9-9-9-9-9-7-7-7-7-7-7-7-7--| 
D|-x-x-x-x-x-x-x-x-x-x-x-x-x-x-x-x-x-x-x-x-x-x-x-x-x-x-x-x-x-x-x-x--| 
A|-0-0-0-0-0-0-0-0-4-4-4-4-4-4-4-4-7-7-7-7-7-7-7-7-5-5-5-5-5-5-5-5--| 
E|------------------------------------------------------------------| 

21st Dead Rats...Again 
e|---------------| 
B|---------------| 
G|---------------| 
D|-7-7-7-7-6-----| 
A|-5-5-5-5-4-----| 
E|---------------| 
 |               | 
e|---------------| 
B|---------------| 
G|-7-7-7-7-6-----| 
D|-x-x-x-x-x-----| 
A|-5-5-5-5-4-----| 
E|---------------| 


Post-Chorus: (after playing verse part once) 
e|------------------------------------------------------------------| 
B|------------------------------------------------------------------| 
G|------------------------------------------------------------------| 
D|-7-7-7-7-7-7-7-7-2-2-2-2-2-2-2-2-4-4-4-4-4-4-4-4-2-2-2-2-2-2-2-2--| 
A|-7-7-7-7-7-7-7-7-2-2-2-2-2-2-2-2-4-4-4-4-4-4-4-4-2-2-2-2-2-2-2-2--| 
E|-5-5-5-5-5-5-5-5-0-0-0-0-0-0-0-0-2-2-2-2-2-2-2-2-0-0-0-0-0-0-0-0--| 
 |                                                                  | 
e|-------------------------------------------------------------0----| 
B|-------------------------------------------------------------0----| 
G|-9-----7-6---6/9-9-----116---6-6-7-----6-4---4-6-6-4-4-2-2--------| 
D|-x-----x-x---x-x-x-----x-x---x-x-x-----x-x---x-x-x-x-x-x-x--------| 
A|-7-----5-4---4/7-7-----9-4---4-4-5-----4-2---2-4-4-2-2-0-0--------| 
E|------------------------------------------------------------------| 


Verse 2: (play intro 2x then:) 
e|------------------------------------------------------------------| 
B|------------------------------------------------------------------| 
G|------------------------------------------------------------------| 
D|-7-7-7-7-7-7-7-7-2-2-2-2-2-2-2-2-4-4-4-4-4-4-4-4-2-2-2-2-2-2-2-2--| 
A|-7-7-7-7-7-7-7-7-2-2-2-2-2-2-2-2-4-4-4-4-4-4-4-4-2-2-2-2-2-2-2-2--| 
E|-5-5-5-5-5-5-5-5-0-0-0-0-0-0-0-0-2-2-2-2-2-2-2-2-0-0-0-0-0-0-0-0--| 
 |                                                                  | 
e|------------------------------------------------------------------| 
B|------------------------------------------------------------------| 
G|-----6---9-6---------6---9-6---------6---9-6-----------6-7-6------| 
D|-7-----7-----9-7-6-----6-----9-6-4-----4-----9-6-6---9-------9-7--| 
A|------------------------------------------------------------------| 
E|------------------------------------------------------------------| 


Outro: 
e|--------------------------------------------| 
B|--------------------------------------------| 
G|--------------------------------------------| 
D|-7----7-7----7-2----2-2----2-4----4-4---4---| 
A|-7----7-7----7-2----2-2----2-4----4-4---4---| 
E|-5----5-5----5-0----0-0----0-2----2-2---2---| 
 |                                            | 
e|--------------------------------------------| 
B|--------------------------------------------| 
G|-9----7-6--6/9-9----116--6-6-7----6-4---4---| 
D|-x----x-x--x-x-x----x-x--x-x-x----x-x---x---| 
A|-7----5-4--4/7-7----9-4--4-4-5----4-2---2---| 
E|--------------------------------------------| 


e|----------------------------------------| 
B|----------------------------------------| 
G|----------------------------------------| 
D|-2----2-2----2-2----2-2----2--7---------| 
A|-2----2-2----2-2----2-2----2--7---------| 
E|-0----0-0----0-0----0-0----0--5---------| 
 |                                        | 
e|----------------------------------------| 
B|----------------------------------------| 
G|-6----4-6----4-6----4-6-4-9/6-6---------| 
D|-x----x-x----x-x----x-x-x-x-x-x---------| 
A|-4----2-4----2-4----2-4-2-7/4-4---------| 
E|----------------------------------------| 
	  

Search Paypal
auto scroll beats size up size down change color hide chords drawings
tab show chords e-chords YouTube Clip e-chords hide all tabs e-chords go to top tab