Jose Luis Reyes

El Dios De Lo Imposible

Jose Luis Reyes

tabs

by  TAMAMOREIRA

save to print version add songbook text version e-mail correct tuner
chordsukulelecavacokeyboardtabbassdrumsharmonicaflute Guitar Pro
close

there isn't a video lesson for this song

chords

El Dios De Lo Imposible

	  		Intro 

Guitarra 

 
E|-----------| 
B|--1s5-4-0--| 
G|-----------|x16 
 

Piano 

 
E|-------------| 
B|-5-4-0-------|x16 
G|-------------| 
 

Guitarra 

 
E|------------------------| 
B|-9-7-10-10-7-5----------|x4 
G|-9-8--9--9-8-6----------| 
 

ESTROFA 

  E                   C#m 
Él es el dios de lo imposible 
 A               F#m             B 
Todo lo puedes hacer si puedes creer 

 
					E|--12-12-11-11-9-9-7-7----------| 
					B|----------------------7-7-5-5--| 
ESTROFA 2				G|-------------------------------| 
 
             E              C#m 
No he visto justo desamparado 

 
					E|--12-12-11-11-9-9-7-7----------| 
					B|----------------------7-7-5-5--| 
					G|-------------------------------| 
 

					Piano 

 
					E|------------------------| 
					B|-5-4-0-5-4-0-5-4-0------| 
				        G|------------------------| 
 
A               F#m             B 
El cumple su palabra en ti lo hará 

PRECORO 

 F#m               A                     B 
No importa el mar que esté al frente de ti	Piano 

 
						E|------------------------| 
						B|-5-4-0-5-4-0-5-4-0------| 
						G|------------------------| 
 

F#m         A              B 
Lo cruzaras y seguro llegaras 

							Piano 

 
						E|------------------------| 
						B|-5-4-0-5-4-0-5-4-0------| 
						G|------------------------| 
 

CORO 
  E                                B 
Levanta tus manos camina hacia el frente 
                  C#m                 A 
Que el dios que lo hizo otra vez lo hará 
          E                   B            C#m 
Camina confiado él está a tu lado y lo imposible 
              A                           E 
 Posible lo hará él es el dios de lo imposible 
Piano 

 
						E|------------------------| 
						B|-5-4-0-5-4-0-5-4-0------| 
						G|------------------------| 
 

						Guitarra 

 
						E|------------------------| 
						B|-9-7-10-10-7-5----------| 
						G|-9-8--9--9-8-6----------| 
		  

Full key step upFull key step up
Half key step upHalf key step up
Half key step downHalf key step down
Full key step downFull key step down
hide glossary

See also:

tabs Ira! - Poço de Sensibilidade (Solo - Acustico Mtv) tabs Deep Purple - Gypsy Kiss tabs Ira! - Envelheço na Cidade (intro) tabs Deep Purple - Smoke on the Water (solo) tabs Ira! - Eu Quero Sempre Mais (Com Pitty, intro) tabs Ira! - Prisão das Ruas
e-chords

Other versions:

tabs Jose Luis Reyes - El Dios De Lo Imposible
auto scroll beats size up size down change color hide chords drawings
tab show chords e-chords YouTube Clip e-chords hide all tabs e-chords go to top tab

share