Johnny Rodriguez

Ridin My Thumb To Mexico

Johnny Rodriguez

tabs Easy easy

save to print version add songbook text version e-mail correct tuner
chordsukulelecavacokeyboardtabbassdrumsharmonicaflute Guitar Pro
close

there isn't a video lesson for this song

chords

Ridin My Thumb To Mexico

	  			b-bend  bh-bendhold 
	/slide up  \slide down 
	p-pulloff br-release bend 
 
 
 
	E------------9---9--------9----7---------------------- 
	B-----7--9--10--10---12--10----9--7---------9--------- 
	G--9---------------------------------9--8---9--------- 
	D----------------------------------------------------- 
	A----------------------------------------------------- 
	E----------------------------------------------------- 
	 
 
 
 
	E-----------------------------9----------------------- 
	B----------------------9--10-------12----------------- 
	G-----------8--9---11--------------------------------- 
	D---9--11--------------------------------------------- 
	A----------------------------------------------------- 
	E----------------------------------------------------- 
		  

See also:

tabs Garth Brooks - The Dance tabs Alan Jackson - 5 O'clock Somewhere tabs John Denver - Take Me Home, Country Roads tabs Charlie Daniels - Long Haired Country Boy (ver. 2) tabs John Denver - Sunshine On My Shoulders tabs Alan Jackson - Chattahoochie
e-chords

Other versions:

tabs Johnny Rodriguez - Ridin My Thumb To Mexico
auto scroll beats size up size down change color hide chords drawings
tab show chords e-chords YouTube Clip e-chords hide all tabs e-chords go to top tab

share