Johnny Mercer

Autumn Leaves

Johnny Mercer

tabs Expert expert

by  ACELOT

save to print version add songbook text version e-mail correct tuner
chordsukulelecavacokeyboardtabbassdrumsharmonicaflute Guitar Pro
close

there isn't a video lesson for this song

chords

Autumn Leaves

(Joseph Kosma / Jacques Prevert / Mercer)

	  		Autumn leaves  


e|-----------------------------------2-------------------------------|  
B|----------5---------3--5--------1--4---------8---------------------|  
G|-------5--5---------4--4--------2--2---------7---------------------|  
D|---4-5-5--4------4--4--5------3-2--4---------5---------------------|  
A|-7-----5--5--5-7-------3--3-5------2--2-4-6--7---------------------|  
E|-------5------------3-----------2----------------------------------|  



e|-----------------------------------2--------------------------------|  
B|----------5---------3--5--------1--4--------------------------------|  
G|-------5--5---------4--4--------2--2----2---------------------------|  
D|---4-5-5--4------4--4--5------3-2--4--4---5--2----------------------|  
A|-7-----5--5--5-7-------3--3-5------2---------2----------------------|  
E|-------5------------3-----------2------------0----------------------|  

e|--------------7---------------------5-------------------------------|  
B|-----10---10--7---------8--5--------5--5----2----3------------------|  
G|-----9----9---8---------7--7--------5--5------5--4------------------|  
D|-----10---10--7---------5--6--5-4-5-7--4---------4------------------|  
A|-6-7-9----9---9--9-7-9--7--------------5--5-------------------------|  
E|--------7-----7------------6---------------------3------------------|  

e|--------------2-----0-------------------2---------------------------|  
B|-----1-1------4-----0--6--6--4----1-----4-------0-------------------|  
G|-3-4-2---2-2--2--5--0--6--5--4----2--0--2--0----0-------------------|  
D|-----2--------4-----2--5--3--3----2-----4-------2-------------------|  
A|--------------2-----2--6--5--4-2--------2----2--2-------------------|  
E|-----2--------------0-------------2-------------0-------------------|  


ARPEJOS  

Am7  
e|-----------------------8-12--8----------------------------------|  
B|--------------------10---------10-------------------------------|  
G|---------------9-12---------------12-9--------------------------|  
D|------------10 ------------------------10-----------------------|  
A|---------12-------------------------------12--------------------|  
E|----------------------------------------------------------------|  

D7  

e|---------------------8-10-8-----------------------------------------|  
B|-------------------10--------10-------------------------------------|  
G|----------------11--------------11----------------------------------|  
D|----------10-12--------------------12-10----------------------------|  
A|-----9-12--------------------------------12-9-----------------------|  
E|--10------------------------------------------10--------------------|  


G7M  

e|-------------------10-14-10-------------------------------------|  
B|----------------12----------12----------------------------------|  
G|----------11-12----------------12-11----------------------------|  
D|-------12----------------------------12-------------------------|  
A|-10-14----------------------------------14-10-------------------|  
E|----------------------------------------------------------------|  

C7M  

e|-----------------7-8-7--------------------------------------------|  
B|---------------8-------8------------------------------------------|  
G|-------------9-----------9----------------------------------------|  
D|--------9-10---------------10-9-----------------------------------|  
A|---7-10-------------------------10-7------------------------------|  
E|-8-----------------------------------8----------------------------|  


F#m7(b5)  

e|-----------------8-12-8---------------------------------------------|  
B|--------------10--------10------------------------------------------|  
G|---------9-11--------------11-9-------------------------------------|  
D|------10------------------------10----------------------------------|  
A|-9-12------------------------------12-9-----------------------------|  
E|--------------------------------------------------------------------|  

B7  

e|----------------5-7-5---------------------------------------------|  
B|--------------7-------7-------------------------------------------|  
G|------------8-----------8-----------------------------------------|  
D|--------7-9---------------9-7-------------------------------------|  
A|----6-9-----------------------9-6---------------------------------|  
E|--7-------------------------------7-------------------------------|  

Em7  

e|--------------7-10-7-------------------------------------------|  
B|------------8--------8-----------------------------------------|  
G|--------7-9------------9-7-------------------------------------|  
D|------9--------------------9-----------------------------------|  
A|-7-10------------------------10-7------------------------------|  
E|---------------------------------------------------------------|  

		  

Full key step upFull key step up
Half key step upHalf key step up
Half key step downHalf key step down
Full key step downFull key step down
hide glossary

See also:

tabs Ray Charles - Hit The Road Jack tabs Joe Pass - Blue Bossa tabs Pat Metheny - It's (just talk) tabs Nat King Cole - Autumn Leaves tabs JJ Cale - Thirteen Days tabs Ray Charles - What'd I Say
e-chords

Other versions:

tabs Johnny Mercer - Autumn Leaves tabs Nat King Cole - Autumn Leaves tabs Joe Pass - Autumn Leaves tabs Ed Sheeran - Autumn Leaves tabs Classical - Autumn Leaves tabs Eric Clapton - Autumn Leaves
auto scroll beats size up size down change color hide chords drawings
tab show chords e-chords YouTube Clip e-chords hide all tabs e-chords go to top tab

share