Johnny Cash

I Walk The Line

Johnny Cash

tabs Beginner beginner

by  DAGINO

save to print version add songbook text version e-mail correct tuner
chordsukulelecavacokeyboardtabbassdrumsharmonicaflute Guitar Pro
close
i-walk-the-line-by-johnny-cash

there is a video lesson for this song

chords

I Walk The Line

Year: 2000 - Album: The Legend of Johnny Cash

(Johnny Cash)

	  		
Intro 

e|-------------|-------------|-------------|---------------------- 
B|-------------|-------------|-------------|---------------------- 
G|-------------|-------------|-------------|---------------------- 
D|-------------|-------0---0-|-0-------2---|---------------------- 
A|-------0---0-|-0-2-4---0---|---4-2-0---0-|-0-------2-2---------- 
E|-0-2-4---0---|-------------|-------------|---4-2-0-------------- 

e|---------------------------------------------------------------- 
B|---------------------------------------------------------------- 
G|---------------------------------------------------------------- 
D|---------1------------------------------------------------------ 
A|-------2---2--0-------2---2---2---2---2------------------------- 
E|-0-2-0----------4-2-0---0---0---0---0---0----------------------- 


Chorus 

e|---0----0----0----0----0----0----0------------------------------ 
B|---0----0----0----0----0----0----0------------2---2------------- 
G|---2----2----1----1----2----2----1------------2---2------------- 
D|---1----1----2----2----1----1----2------------2---2------------- 
A|-2-2-------2-2----2--2-2-------2-2----------0-0---0------------- 
E|------3---------0---------3---------0-0-2-4-----0--------------- 



e|---0----0----0----0----0---------------------------------------- 
B|---0----0----0----0----0---------------------------------------- 
G|---1----1----2----2----1---------------------------------------- 
D|---2----2----1----1----2---------------------------------------- 
A|-2-2----2--2-2-------2-2-----------0---0---0---0---0---0---0---- 
E|------0---------3---------0-0-2-4----0---0---0---0---0---0------ 


Verse 1 

e|---0----0----0----0-----0----0----0-------------2----2---------- 
B|---0----0----2----2-----0----0----2-------------3----3---------- 
G|---1----1----2----2-----1----1----2-------------2----2---------- 
D|---0----0----2----2-----0----0----2-----------0----------------- 
A|-2-2----2--0----------2-2----2--0----0-0-2-4-------0------------ 
E|------0---------0----------0------------------------------------ 


e|---0----0----0----0----0---------------------------------------- 
B|---2----2----0----0----2---------------------------------------- 
G|---2----2----1----1----2---------------------------------------- 
D|---2----2----0----0----2----------0---0---0---0---0---0---0---0- 
A|-0---------2-2----2--0----0-0-2-4---0---0---0---0---0---0---0--- 
E|------0---------0----------------------------------------------- 


Verse 2 

e|---0----0----2----2----0----0----2----2----3----3----2----2----- 
B|---2----2----3----3----2----2----3----3----0----0----3----3----- 
G|---2----2----2----2----2----2----2----2----0----0----2----2----- 
D|---2----2--0-----------2----2--0-----------0----0--0------------ 
A|-0--------------0----0--------------0------2----2-------0------- 
E|------0-------------------0--------------3----3----------------- 

e|---0----0----2-------------------------------------------------- 
B|---2----2----3-------------------------------------------------- 
G|---2----2----2-------------------------------------------------- 
D|---2----2--0----0-0--------0---0---0---0------------------------ 
A|-0------------------4-2-0----0---0---0---0---------------------- 
E|------0--------------------------------------------------------- 

		  

auto scroll beats size up size down change color hide chords drawings
tab show chords e-chords YouTube Clip e-chords hide all tabs e-chords go to top tab

share