Johnny Cash

Folsom Prison Blues/Perkins style Tab

Johnny Cash

Difficulty: ExpertExpert

by wompum

tuner correct add songbook print version text version save to e-mail
chordsukulelecavacokeyboardtabbassdrumsharmonicsflute Guitar Pro
close

there isn't a video lesson for this song

request
chords

Folsom Prison Blues/Perkins style

  		e|-------7--10--7--10--7---------7--10--7--10--------------------| 
B|--8h-9-------------------8h-9----------------------------------| 
G|---------------------------------------------------------------| 
D|---------------------------------------------------------------| 
A|---------------------------------------------------------------| 
E|---------------------------------------------------------------| 
 
e|--------7--10--7--10--7---------7--10--7--10--7----------------| 
B|--8h-9--------------------8h-9------------------9--------------| 
G|---------------------------------------------------9-----------| 
D|---------------------------------------------------------------| 
A|---------------------------------------------------------------| 
E|---------------------------------------------------------------| 
 
e|--------5----5--5--0-------5-0--------9---0---------------0----| 
B|-----2--2--2-2--2-----0----5----0-----10------0--------0-----0-| 
G|-----2-----2----2--------6---------9-------------------1-------| 
D|-----2-----2-------------------------------------------2-------| 
A|--0----------------------------------------------------2-------| 
E|---------------------------------------------------0-----------| 
 
e|---------0----------------------------2-----------2------------| 
B|-----0------0------0--------------0-----0-----0------0---------| 
G|-----1-------------1--------------2-----------2----------------| 
D|-----2-------------2--------------1-----------1----------------| 
A|-----2-------------2----0--1--2------------2-------------------| 
E|--0-------------0----------------------------------------------| 
 
e|---------2-----------------------------------------------------| 
B|-----0------0--------------------------------------------------| 
G|-----2---------------------------------------------------------| 
D|-----1---------------------------------------------------------| 
A|--2-------------2--2--2--2-1-----------------------------------| 
E|-----------------------------2b--0-----------------------------| 
 
This is the way this solo was played in the movie Walk the Line 
 
Note For best tone you need a tele or a Esquier.:) 
 
| /  slide up 
| \  slide down 
| h  hammer-on 
| p  pull-off 
| ~  vibrato 
| +  harmonic 
| x  Mute note 
 

	  

Search Paypal
auto scroll beats size up size down change color hide chords drawings
tab show chords e-chords YouTube Clip e-chords hide all tabs e-chords go to top tab

share with facebook