Johnny Cash

home > Johnny Cash

Folsom Prison Blues (intro And Solo) Tab

Johnny Cash

Difficulty: BeginnerBeginner

tuner correct add songbook print version text version save to e-mail
chordsukulelecavacokeyboardtabbassdrumsharmonicsflute Guitar Pro
chords

Folsom Prison Blues (intro And Solo)

  		Folsom Prison Blues Intro, Solo, And Outro 
h: hammer on 
 
Hey. I Took Some Other Peoples Tabs What They Have Already Done, And I Fixed  
Them To the Way I Like Them, And The Way I Think is Correct. 
 
Intro: 
 
E---------------------- 
B---------------------- 
G-----------------1---- 
D------11---------2---- 
A--222----2-------2---- 
E-----------2h3-------- 
 
 
 
Solo: 
 
E-----7-10-7-10-7-------7-10-7-10------------7-10-7-10-7--------7-10-7-10-- 
B-7-8---------------7-9------------------7-8----------------7-9------------ 
G-------------------------------------------------------------------------- 
D-------------------------------------------------------------------------- 
A-------------------------------------------------------------------------- 
E-------------------------------------------------------------------------- 
 
E---------h7---------h7---------h7--------h7------------------------------- 
B--5----------5----------5----------5-------------------------------------- 
G----6----------6----------6----------6------------------------------------ 
D------7----------7----------7----------7---------------------------------- 
A-------------------------------------------------------------------------- 
E-------------------------------------------------------------------------- 
 
 
E-------------------------------------------------------------------------- 
B-------------------------------------------------------------------------- 
G--1----------------------------------------------------------------------- 
D----2----------1111------------------------------------------------------- 
A----2---2-2-2--------2---------------------------------------------------- 
E-----------------------2h3------------------------------------------------ 
 
 
 
Outro: 
 
E---------------------- 
B---------------------- 
G-----------------1---- 
D------11---------2---- 
A--222----2-------2---- 
E-----------2h3-------- 
 
 
Please Comment My Work And Tell Me What You Guys Think, Thanks Bye For Now. 
 
P.S Keep Playin George.J And Johnny.C They Rule!!! 
	  

Search Paypal
auto scroll beats size up size down change color hide chords drawings
tab show chords e-chords YouTube Clip e-chords hide all tabs e-chords go to top tab