John Petrucci

Wishful Thinking

John Petrucci

tabs Expert expert

by  SUPER-PI

save to print version add songbook text version e-mail correct tuner
chordsukulelecavacokeyboardtabbassdrumsharmonicaflute Guitar Pro
close

there isn't a video lesson for this song

chords

Wishful Thinking

	  		Legato 
e|---------------------------------------------------------------------------| 
B|---------------------------------------------------------------------------| 
G|--11--10--11---------10----11---10--11---------11---13---------------------| 
D|--------------11-----------------------------------------------------------| 
A|---------------------------------------------------------------------------| 
E|---------------------------------------------------------------------------| 
 
e|---------------------------------------------------------------------------| 
B|----------------------------14---------------------------------------------| 
G|--11--10--11-----------------------------------------10--------------------| 
D|--------------11---9----11--11---------------------------------------------| 
A|---------------------------------------------------------------------------| 
E|---------------------------------------------------------------------------| 
 
e|----------------------------14----13--14-----------------------------------| 
B|---------------------------------------------------------------------------| 
G|---11--10--11--------10-----11----10--11-----------------------------------| 
D|---------------11----------------------------------------------------------| 
A|---------------------------------------------------------------------------| 
E|---------------------------------------------------------------------------| 
 
e|---------------------------------------------------------------------------| 
B|---------11-12---11-12-11--------------------------------------------------| 
G|---11-13-------------------13~--11-10/11-----------------------------------| 
D|---------------------------------------------------------------------------| 
A|---------------------------------------------------------------------------| 
E|---------------------------------------------------------------------------| 
 
 
******** 
Verse 1: 0:27 
******** 
 
(part i) 
 
Intro ends, Rhythm plays C#5 chord and lead plays the following solo: 
 
e|-----------------------------------------------------------------------------| 
B|---------------------7-------------------------------------------------------| 
G|--4/6--4--3---6--------------------------------------------------------------| 
D|-------------------------6/86------------------------------------------------| 
A|-----------------------------------------------------------------------------| 
E|-----------------------------------------------------------------------------| 
 
e|-----------------------------------------------------------------------------| 
B|-----------------------------------------------------------------------------| 
G|-----.--.-------------11/13--------------------------------------------------| 
D|-----6--8--9--/11--------------8/98------------------------------------------| 
A|-----------------------------------------------------------------------------| 
E|-----------------------------------------------------------------------------| 
 
e|---------------------------------------------------------------------------| 
B|--------+------------------------------------------------------------------| 
G|--------8----10--pb11-r10--------------------------------------------------| 
D|----8------------------------11--10----------------------------------------| 
A|---------------------------------------------------------------------------| 
E|---------------------------------------------------------------------------| 
 
e|---------------+-----------------------------------------------------------| 
B|-------9---11-b12-r11------------------------------------------------------| 
G|---.-------------------11--10----------------------------------------------| 
D|---11----------------------------------------------------------------------| 
A|---------------------------------------------------------------------------| 
E|---------------------------------------------------------------------------| 
 
 
(part ii) 
 
e|-----------------------------------------------------------------------------| 
B|-------------------7/9--7----------------------------------------------------| 
G|--64--3--/6------------------------------------------------------------------| 
D|------------------------------6----------------------------------------------| 
A|-----------------------------------------------------------------------------| 
E|-----------------------------------------------------------------------------| 
 
e|---------------------------------------------------------------------------| 
B|---------------------------------------------------------------------------| 
G|-----.--.--+----------13/15--13--15/16-15---13-----------------------------| 
D|-----6--8--9--/11----------------------------------------------------------| 
A|---------------------------------------------------------------------------| 
E|---------------------------------------------------------------------------| 
 
e|-----------------------------------------------------------------------------| 
B|---------.-------------------------------------------------------------------| 
G|----11---13---13/15--13---11---13~-------------------------------------------| 
D|-----------------------------------------------------------------------------| 
A|-----------------------------------------------------------------------------| 
E|-----------------------------------------------------------------------------| 
 
e|-----------------------------------------------------------------------------| 
B|----------------------------------14-16---14---------------------------------| 
G|----x--13---15--16-------13-15-16-------------16-15-16-13--------------------| 
D|----------------------16-----------------------------------16-15-16-11-------| 
A|-----------------------------------------------------------------------------| 
E|-----------------------------------------------------------------------------| 
 
 
(part iii) 
 
Rhythm guitar strikes B5 chord 
 
A second lead gutiar joins in this section. 
 
2nd lead guitar NOT tabbed - play an octave about what is tabbed for guitar 1. 
 
e|-----------------------------------------------------------------------------| 
B|-----------------12--14------------------------------------------------------| 
G|-----------11-13---------13/15--13-------------------------------------------| 
D|---x--9-11-------------------------------------------------------------------| 
A|-----------------------------------------------------------------------------| 
E|-----------------------------------------------------------------------------| 
          * 2nd guitar joins here (at asterix - after slide from 6 to 8) 
e|---------------------------------------------------------------------------| 
B|--------9--11--12--11h12p11-------11--9h11p9-------9--11-------------------| 
G|------------------------------11---------------10---------11---------------| 
D|---6/8---------------------------------------------------------------------| 
A|---------------------------------------------------------------------------| 
E|---------------------------------------------------------------------------| 
 
e|--------------------------------------13-----------------------------------| 
B|--------------------------9/11---12----------------------------------------| 
G|--11--10---8----10---11---------------10-----------------------------------| 
D|---------------------------------------------------------------------------| 
A|---------------------------------------------------------------------------| 
E|---------------------------------------------------------------------------| 
 
 
******* 
Chorus:	1:36 
******* 
 
Sounds like 2 guitars playing here again. 
 
e|---------------------------------------------------------------------------| 
B|---------------------------------------------------------------------------| 
G|--11--10--11---------10----11---10--11---------11---13---------------------| 
D|--------------11-----------------------------------------------------------| 
A|---------------------------------------------------------------------------| 
E|---------------------------------------------------------------------------| 
				*guitar 2 fill (below)* 
e|---------------------------------------------------------------------------| 
B|----------------------------14---------------------------------------------| 
G|--11--10--11-----------------------------------------10--------------------| 
D|--------------11---9----11--11---------------------------------------------| 
A|---------------------------------------------------------------------------| 
E|---------------------------------------------------------------------------| 
 
e|----------------------------14----13--14-----------------------------------| 
B|---------------------------------------------------------------------------| 
G|---11--10--11--------10-----11----10--11-----------------------------------| 
D|---------------11----------------------------------------------------------| 
A|---------------------------------------------------------------------------| 
E|---------------------------------------------------------------------------| 
 
e|---------------------------------------------------------------------------| 
B|---------11-12~--11h12p11--------------------------------------------------| 
G|---11-13-------------------13-11-13~--11h13h15p13p11------11--13--11-------| 
D|------------------------------------------------------11-------------------| 
A|---------------------------------------------------------------------------| 
E|---------------------------------------------------------------------------| 
 
 
*GUITAR 2 Chorus fill (2ND LINE OF THE ABOVE): (not very accurate I'm afraid) 
(timestamp 1:46) 
e|---13/1413-------------------------------------------------------------------| 
B|------------14-12-11---------------------------------------------------------| 
G|----------------------10-11-13-10-----10-------------------------------------| 
D|-----------------------------------11----9-11-9------------------------------| 
A|-----------------------------------------------------------------------------| 
E|-----------------------------------------------------------------------------| 
 
 
******** 
Verse 2: 2:01 
******** 
 
(part i) (length: 8 bars) 
 
Intro ends, Rhythm plays C#5 chord and lead plays the following solo: 
 
e|-----------------------------------------------------------------------------| 
B|--------------------19-------------------------------------------------------| 
G|--18--16--15--18---------13/1513---------------------------------------------| 
D|-----------------------------------------------------------------------------| 
A|-----------------------------------------------------------------------------| 
E|-----------------------------------------------------------------------------| 
 
e|-----------------------------------------------------------------------------| 
B|-----.---.----------------19h21----------------------------------------------| 
G|-----13--15--16-----18---------------------15/1615---------------------------| 
D|-----------------------------------------------------------------------------| 
A|-----------------------------------------------------------------------------| 
E|-----------------------------------------------------------------------------| 
 
e|-----------------------------------------------------------------------------| 
B|----.----16----18--18b19-r18----------------------14/16----------------------| 
G|----16------------------------18--17-----18-17-18----------------------------| 
D|-----------------------------------------------------------------------------| 
A|-----------------------------------------------------------------------------| 
E|-----------------------------------------------------------------------------| 
		  + 
e|----.---16---18-18b19--r18-------------------------------------------------| 
B|----15----------------------19--18~----19-18-16-14-------------------------| 
G|---------------------------------------------------------------------------| 
D|---------------------------------------------------------------------------| 
A|---------------------------------------------------------------------------| 
E|---------------------------------------------------------------------------| 
 
(part ii) (length: 6 bars) 
 
Rhythm Guitar strikes a B5 chord. 
 
e|------19b21---r19-19-----18--16b18---r16-----------------------------------| 
B|--.------------------------------------------------------------------------| 
G|--18-----------------------------------------------------------------------| 
D|---------------------------------------------------------------------------| 
A|---------------------------------------------------------------------------| 
E|---------------------------------------------------------------------------| 
 
e|------------14-16/18-16-14-16b18-16b18~------------------------------------| 
B|---------14----------------------------------------------------------------| 
G|---11/13-------------------------------------------------------------------| 
D|---------------------------------------------------------------------------| 
A|---------------------------------------------------------------------------| 
E|---------------------------------------------------------------------------| 
 
e|---14-17b19-16b18--16-14----14-16-14~--------------------------------------| 
B|-------------------------16------------------------------------------------| 
G|---------------------------------------------------------------------------| 
D|---------------------------------------------------------------------------| 
A|---------------------------------------------------------------------------| 
E|---------------------------------------------------------------------------| 
 
e|-----------------------------------------------------------------------------| 
B|--14b16-16-14--------------14b16-16-14---------------------------------------| 
G|--------------15-13b15-15--------------15-13b15r13---------------------------| 
D|---------------------------------------------------16-13---------------------| 
A|-----------------------------------------------------------------------------| 
E|-----------------------------------------------------------------------------| 
 
e|-----------------------------------18-----19-------------------------------| 
B|---14/16---18--19---18-19-18-----------------------------------------------| 
G|---------------------------------------------------------------------------| 
D|---------------------------------------------------------------------------| 
A|---------------------------------------------------------------------------| 
E|---------------------------------------------------------------------------| 
 
 
******* 
Chorus:	2:46 
******* 
 
Guitar 1: 
 
e|---------------------------------------------------------------------------| 
B|---------------------------------------------------------------------------| 
G|--11--10--11---------10----11---10--11-----------11---13-------------------| 
D|--------------11-----------------------------------------------------------| 
A|---------------------------------------------------------------------------| 
E|---------------------------------------------------------------------------| 
				*FILL here* 
e|---------------------------------------------------------------------------| 
B|---------------------------------------------------------------------------| 
G|--11--10--11---------------------------------------------------------------| 
D|--------------11---9----11--11---------------------------------------------| 
A|---------------------------------------------------------------------------| 
E|---------------------------------------------------------------------------| 
 
e|----------------------------14----13--14-----------------------------------| 
B|---------------------------------------------------------------------------| 
G|---11--10--11--------10-----11----10--11-----------------------------------| 
D|---------------11----------------------------------------------------------| 
A|---------------------------------------------------------------------------| 
E|---------------------------------------------------------------------------| 
 
e|---------------------------------------------------------------------------| 
B|---------11-12~--11h12p11--------------------------------------------------| 
G|---11-13-------------------13~--13b15-r13-11-------------------------------| 
D|---------------------------------------------------------------------------| 
A|---------------------------------------------------------------------------| 
E|---------------------------------------------------------------------------| 
 
Guitar 2: 
 
e|---------------------------------------------------------------------------| 
B|-------------------------------------14-----16-----------------------------| 
G|-----------------------------13--15----------------------------------------| 
D|---------------------------------------------------------------------------| 
A|---------------------------------------------------------------------------| 
E|---------------------------------------------------------------------------| 
 
e|---------------------------------------------------------------------------| 
B|--16-------------------------------------12/14-12--11--9--7----------------| 
G|---------------------------------------------------------------------------| 
D|---------------------------------------------------------------------------| 
A|---------------------------------------------------------------------------| 
E|---------------------------------------------------------------------------| 
 
e|---------------------13------14----13--14----------------------------------| 
B|---------------------------------------------------------------------------| 
G|---------------------------------------------------------------------------| 
D|---------------------------------------------------------------------------| 
A|---------------------------------------------------------------------------| 
E|---------------------------------------------------------------------------| 
 
e|---------18-19~--18h19p18--------------------------------------------------| 
B|---19-21-------------------21~--21b23-r21-19-------------------------------| 
G|---------------------------------------------------------------------------| 
D|---------------------------------------------------------------------------| 
A|---------------------------------------------------------------------------| 
E|---------------------------------------------------------------------------| 
 
 
:FILL: (can be played by guitar 1): (2nd line in the Chorus above) (2:55) 
 
This isn't going to be exact since the latter half becomes clouded in the mix. 
 
e|-----------------------------------------------------11--------------------| 
B|--------------------------------11----------11-12-14----14-12-14-11--------| 
G|-----------10-11-10----10-11-13----13-11-13-------------------------13--11-| 
D|--9--11-13----------13-----------------------------------------------------| 
A|---------------------------------------------------------------------------| 
E|---------------------------------------------------------------------------| 
 
******************* 
Bridge/Guitar Solo: (3:07) 
******************* 
 
 
The first part of this leads straight on from the last line of the Chorus. 
 
Guitar 2 holds the F# (19th fret) slides down and restrikes it (listen to CD) 
while guitar 1 plays: 
 
e|---------------------------------------------------------------------------------------| 
B|------------14---------------------14----------14-------14-------14-------14-------14--| 
G|--11--11-11----11-11-11--11--11-11----11-11-11----11-11----11-11----11-11----11-11-----| 
D|---------------------------------------------------------------------------------------| 
A|---------------------------------------------------------------------------------------| 
E|---------------------------------------------------------------------------------------| 
 
 
e|---------------------------------------------------------------------------| 
B|---------------------------------------14/16-------------------------------| 
G|---16--15-16--15p13h15p13----16--15-16-------------------------------------| 
D|---------------------------------------------------------------------------| 
A|---------------------------------------------------------------------------| 
E|---------------------------------------------------------------------------| 
 
e|--------------14-----13------16--14-16--------13------13-------------------| 
B|------------------16----14-------------14----------16----------------------| 
G|---16--15-16---------------------------------------------------------------| 
D|---------------------------------------------------------------------------| 
A|---------------------------------------------------------------------------| 
E|---------------------------------------------------------------------------| 
 
e|------------------------------------------18-16---18-19-23-19-21-0-18-19-0-14-16-0-16--| 
B|--12-0-12-14-16-0-16-0-16-18-19-0-19-0-19-------0--------------------------------------| 
G|---------------------------------------------------------------------------------------| 
D|---------------------------------------------------------------------------------------| 
A|---------------------------------------------------------------------------------------| 
E|---------------------------------------------------------------------------------------| 
 
e|---------------------------------------------------------------------------| 
B|--16-0-14-16-------0-16-0-14-16-21-0-19-0----------------------------------| 
G|-------------14/16---------------------------------------------------------| 
D|---------------------------------------------------------------------------| 
A|---------------------------------------------------------------------------| 
E|---------------------------------------------------------------------------| 
 
e|----------------------------------------------------9------------------------| 
B|-18-19-21-19-18-1814-16p149-12p117-9p75-9p75-6-------------------------------| 
G|-----------------------------------------------------------------------------| 
D|-----------------------------------------------------------------------------| 
A|-----------------------------------------------------------------------------| 
E|-----------------------------------------------------------------------------| 
 
(3:31) 
 
e|---------------------------------------------------------------------------| 
B|---17b19-17b19--17-14-17b19-17b19--17b19-17-14-----------------------------| 
G|------------------------------------------------16b18-r16-14--16-b18-r16~--| 
D|---------------------------------------------------------------------------| 
A|---------------------------------------------------------------------------| 
E|---------------------------------------------------------------------------| 
 
Accend up the 3nd minor pentatonic position very fast, something like: 
 
e|---------------------------------------------------------------------------| 
B|---------------------------------------------------------------------------| 
G|---------------------------------------------------------------------------| 
D|---------------------------------------------------------------------------| 
A|-------------------14h16p14h16p14----------------14h16p14h16p14------------| 
E|---12h14h16p14h16-----------------14h16p14h16p14---------------------------| 
 
e|-------------------------------------------14h16h17p16p14-------+----------| 
B|-------------------------------14h17p14h17----------------17p14h19~--------| 
G|-------------------13h16p13h16---------------------------------------------| 
D|---14h16p14h16p14----------------------------------------------------------| 
A|---------------------------------------------------------------------------| 
E|---------------------------------------------------------------------------| 
 
whatever you do you want to end up on the F#, ideally on the B string as 
this gives the nicest harmonic (in my opinion anyway, might well sound 
different on your equipment). 
 
e|-------------14-----14--16-17p16p14-14-16-17-16-17-19b20r19--19-16-19~-------| 
B|----12/14-17-----17----------------------------------------------------------| 
G|-----------------------------------------------------------------------------| 
D|-----------------------------------------------------------------------------| 
A|-----------------------------------------------------------------------------| 
E|-----------------------------------------------------------------------------| 
 
e|------------17--14-----------------------------------------------------------| 
B|---12/14-17--------14-17-----------------------------------------------------| 
G|-------------------------16-14----14h15-14h15--------------------------------| 
D|-------------------------------16-------------16~----------------------------| 
A|-----------------------------------------------------14-13-14-13-------------| 
E|-----------------------------------------------------------------14~---------| 
 
******** 
Verse 3: (3:48) 
******** 
 
e|---------------------------------------------------------------------------| 
B|---------------------7/9-7-------------------------------------------------| 
G|--4/6--4--3---6------------------------------------------------------------| 
D|------------------------------6--------------------------------------------| 
A|---------------------------------------------------------------------------| 
E|---------------------------------------------------------------------------| 
 
e|-----------------------------------------------------------------------------| 
B|----------------------9/11--9------------------------------------------------| 
G|-----.--.--------------------------------------------------------------------| 
D|-----6--8--9--8-9---------------8----x---------------------------------------| 
A|-----------------------------------------------------------------------------| 
E|-----------------------------------------------------------------------------| 
 
e|-----------------------------------------------------------------------------| 
B|----------------------------------------11-----12--9-------------------------| 
G|---10/11--10/1110--8--------8--10--11----------------------------------------| 
D|--------------------------8--------------------------------------------------| 
A|-----------------------------------------------------------------------------| 
E|-----------------------------------------------------------------------------| 
 
e|----------+-----+-------------18----18-19-18-19-21------------21-23-23b25--| 
B|---/16-18b19-18b19---18/19-21----21---------------------19/21--------------| 
G|---------------------------------------------------------------------------| 
D|---------------------------------------------------------------------------| 
A|---------------------------------------------------------------------------| 
E|---------------------------------------------------------------------------| 
 
******* 
Chorus:	4:14 
******* 
 
The Chorus is repeated - I have written it out completely twice for clarity (i hope!) 
 
FIRST TIME: (4:14) 
 
Guitar 1: 
 
e|---------------------------------------------------------------------------| 
B|---------------------------------------------------------------------------| 
G|--11--10--11---------10----11---10--11-----------11---13-------------------| 
D|--------------11-----------------------------------------------------------| 
A|---------------------------------------------------------------------------| 
E|---------------------------------------------------------------------------| 
 
e|---------------------------------------------------------------------------| 
B|---------------------------------------------------------------------------| 
G|--11--10--11--------------------------------------------10-----------------| 
D|--------------11---9----11--11---------------------------------------------| 
A|---------------------------------------------------------------------------| 
E|---------------------------------------------------------------------------| 
 
e|---------------------------------------------------------------------------| 
B|---------------------------------------------------------------------------| 
G|---11--10--11--------10-----11----10--11-----------------------------------| 
D|---------------11----------------------------------------------------------| 
A|---------------------------------------------------------------------------| 
E|---------------------------------------------------------------------------| 
 
e|---------------------------------------------------------------------------| 
B|---------11-12~--11h12p11--------------------------------------------------| 
G|---11-13-------------------13~------11-------------------------------------| 
D|---------------------------------------------------------------------------| 
A|---------------------------------------------------------------------------| 
E|---------------------------------------------------------------------------| 
 
Guitar 2: 
(i'd say this guitar continues on from verse 3) 
 
e|--24b26--------------------------------------11------------------------------| 
B|---------------------------------11-14-11-14----14--------x------------------| 
G|-------------------11---13-11-13---------------------------------------------| 
D|-------------11-13-----------------------------------------------------------| 
A|-----------------------------------------------------------------------------| 
E|-----------------------------------------------------------------------------| 
 
e|--------14-14---14-16-14-16---14-18b19-16b18r16-14----14-16-14-------x-------| 
B|----/14--------------------------------------------16------------------------| 
G|-----------------------------------------------------------------------------| 
D|-----------------------------------------------------------------------------| 
A|-----------------------------------------------------------------------------| 
E|-----------------------------------------------------------------------------| 
 
e|-----------------------------------------------------------------------------| 
B|-----------14----------------------------------------------------------------| 
G|----11/13-----13-11-13--x----------------------------------------------------| 
D|-----------------------------------------------------------------------------| 
A|-----------------------------------------------------------------------------| 
E|-----------------------------------------------------------------------------| 
 
e|---------------------------------------------------------------------------| 
B|---------14----16-14-19----------------------------------------------------| 
G|---13-15-------------------------------------------------------------------| 
D|---------------------------------------------------------------------------| 
A|---------------------------------------------------------------------------| 
E|---------------------------------------------------------------------------| 
 
SECOND TIME: (4:36) 
 
Guitar 1: 
 
e|---------------------------------------------------------------------------| 
B|---------------------------------------------------------------------------| 
G|--11--10--11---------10----11---10--11-----------11---13-------------------| 
D|--------------11-----------------------------------------------------------| 
A|---------------------------------------------------------------------------| 
E|---------------------------------------------------------------------------| 
 
e|---------------------------------------------------------------------------| 
B|---------------------------------------------------------------------------| 
G|--11--10--11--------------------------------------------10-----------------| 
D|--------------11---9----11--9h11-------------------------------------------| 
A|---------------------------------------------------------------------------| 
E|---------------------------------------------------------------------------| 
 
e|---------------------------------------------------------------------------| 
B|---------------------------------------------------------------------------| 
G|---11--10--11--------10-----11----10--11-----------------------------------| 
D|---------------11----------------------------------------------------------| 
A|---------------------------------------------------------------------------| 
E|---------------------------------------------------------------------------| 
 
e|-----------------------------------------------------------------------------| 
B|---------11-12~--11h12p11----------------------------------------------------| 
G|---11-13-------------------13~------11----9--11-/13--11--8/98----------------| 
D|----------------------------------------------------------------11-----------| 
A|-----------------------------------------------------------------------------| 
E|-----------------------------------------------------------------------------| 
 
e|-----------------------------------------------------------------------------| 
B|-----------------------------------------------------------------------------| 
G|------------------------------9--11-/13--11--8/98----------------------------| 
D|--11-9-9-9-9-8-8-8-8--------------------------------11-11--------------------| 
A|-----------------------------------------------------------------------------| 
E|-----------------------------------------------------------------------------| 
 
 
Guitar 2: 
  "19" follows on from above 
e|------------------------------21----------21----21b23----------------------| 
B|--(19)----------18--19--18-19----19-18-19----------------------------------| 
G|---------------------------------------------------------------------------| 
D|---------------------------------------------------------------------------| 
A|---------------------------------------------------------------------------| 
E|---------------------------------------------------------------------------| 
 
e|---21---------19-18-19-18h19p18-16----------19-----------------------------| 
B|-----------------------------------19-18-19--------------------------------| 
G|---------------------------------------------------------------------------| 
D|---------------------------------------------------------------------------| 
A|---------------------------------------------------------------------------| 
E|---------------------------------------------------------------------------| 
 
e|---------------------------------------------------------------------------| 
B|---18h19h21-18-19-18--------21-18-19-18--------21-18-19-18-----------------| 
G|---------------------20-18--------------20-18--------------20-18-----------| 
D|---------------------------------------------------------------------------| 
A|---------------------------------------------------------------------------| 
E|---------------------------------------------------------------------------| 
 
    play this phrase 6 times (this line is quite likely to be inaccurate) 
e|---------------------------|-----------------------------------------------| 
B|*-----19p18h19p18---------*|-----------------------------------------------| 
G|------------------20p18----|---18p20p18p15-18p20p18p15-18p20p18p15---------| 
D|---------------------------|---------------------------------------16-18---| 
A|*-------------------------*|-----------------------------------------------| 
E|---------------------------|-----------------------------------------------| 
 
 
********* 
Interval: ~5:15 
********* 
 
Bass and drums play for a few bars then lead guitar comes in: 
 
e|-----------------------------------------------------------------------------| 
B|-----------------------------------------------------------------------------| 
G|-----------------------------------------------------------------------------| 
D|--10h11p10p8-----------------------------------------------------------------| 
A|-----------------------------------------------------------------------------| 
E|--------------------------14-16-14-16-12-------------------------------------| 
 
e|-----------------------------------------------------------------------------| 
B|-----------------------------------------------------------------------------| 
G|----------------9-8b9--x--------6b8r6b8r6|--x--------------------------------| 
D|---------8-9-11--------------------------------------------------------------| 
A|--8h9h11---------------------------------------------------------------------| 
E|-----------------------------------------------------------------------------| 
 
e|---------------------------------------------------------------------------| 
B|---------------------------------------------------------------------------| 
G|-------11--13--13b15--13b15------------------------------------------------| 
D|---13----------------------------------------------------------------------| 
A|---------------------------------------------------------------------------| 
E|---------------------------------------------------------------------------| 
 
e|---12/14-14b16-12-12---12-11---11-9---9--7---7--6--7--9--------------------| 
B|---------------------------------------------------------------------------| 
G|-----------------------9--8----8--6---6--4---4--3--4--6--------------------| 
D|---------------------------------------------------------------------------| 
A|---------------------------------------------------------------------------| 
E|---------------------------------------------------------------------------| 
 
e|---------------------------------------------------------------------------| 
B|---------------------------------------------------------------------------| 
G|---------------------------------------------------------------------------| 
D|---4-6-4-6-----------------------------------------------------------------| 
A|-----------------4-6-4-6-4-------------------------------------------------| 
E|---------------------------------------------------------------------------| 
 
************ 
Guitar Solo: 6:00 
************ 
 
This is the outro to the song. 
 
   slide from an undeterminable point downwards 
   probably meant to use whammy bar for this. 
e|-----------------------------------------------------------------------------| 
B|-------10/12-10-12-------12-14-11~-x-----------------------------------------| 
G|-----------------------------------------------------------------------------| 
D|-----------------------------------------------------------------------------| 
A|---x-------------------------------------------------------------------------| 
E|---x-------------------------------------------------------------------------| 
 
e|--------11-14-11-12-11-----------------------------------------------------| 
B|--11-12----------------14-13-12-11-----------------------------------------| 
G|-------------------------------------13-12-11------------------------------| 
D|---------------------------------------------------------------------------| 
A|---------------------------------------------------------------------------| 
E|---------------------------------------------------------------------------| 
 
e|--18-14-16-14--------------------------------------------------------------| 
B|--------------16-14--------------------------------------------------------| 
G|--------------------16-15--------------------------------------------------| 
D|--------------------------16-14--------------------------------------------| 
A|--------------------------------16-14--------------------------------------| 
E|--------------------------------------16-14--------------------------------| 
 
e|--------------------------------------16-16-14-14-16b18----14-14-----------| 
B|---------------------------------------------------------------------------| 
G|--------------------------18-18-16-16--------------------------------------| 
D|--------------18-18-16-16--------------------------------------------------| 
A|--16-16-14-14--------------------------------------------------------------| 
E|---------------------------------------------------------------------------| 
 
e|-----16-18-19-18-16--------------------------------------------------------| 
B|--19----------------19-17-16-19-17-16--------------------------------------| 
G|--------------------------------------18-16-15-18-16-15--------------------| 
D|--------------------------------------------------------18-16-14-18-16-14--| 
A|---------------------------------------------------------------------------| 
E|---------------------------------------------------------------------------| 
 
e|---------------------------------------------------------------------------| 
B|---------------------------------------------------------------------------| 
G|---------------------------------------------------------------------------| 
D|--13-16-14-13--------------------------------------------------------------| 
A|--------------16-14-13-16-14-13-11-14-13-11--------------------------------| 
E|--------------------------------------------14-12-11-14-12-11-9-12-11-9-7--| 
 
(6:19) 
 
e|---------------------------------------------------------------------------| 
B|---------------------------------------------------------------------------| 
G|---------------------------------------------------------------------------| 
D|-----------------------------------------------------13-14-13----------13--| 
A|-----------11-13-11----------11-13-14-13-11-13-14-16----------16-14-16-----| 
E|--11-12-14----------14-12-14-----------------------------------------------| 
 
e|----------------------------------------------------------------16-18-19---| 
B|-------------------------------------------16-17-19-17-16-17-19------------| 
G|-------------13-15-16-15-13-15-16-13-15-16---------------------------------| 
D|-14-13-14-16---------------------------------------------------------------| 
A|---------------------------------------------------------------------------| 
E|---------------------------------------------------------------------------| 
 
e|-18-16-18-19-18-16--18-21--19-18--19-21-19-18--19-23-21-19--21-23-21-19----| 
B|---------------------------------------------------------------------------| 
G|---------------------------------------------------------------------------| 
D|---------------------------------------------------------------------------| 
A|---------------------------------------------------------------------------| 
E|---------------------------------------------------------------------------| 
 
e|-18-------23/24----------23b24---------------------------------------------| 
B|----21-19------------------------------------------------------------------| 
G|---------------------------------------------------------------------------| 
D|---------------------------------------------------------------------------| 
A|---------------------------------------------------------------------------| 
E|---------------------------------------------------------------------------| 
                              | Alternative below** | 
e|--21b23-21-18-19----18-----------------------------------------------------| 
B|-----------------21----19----16-15-----------------------------------------| 
G|-----------------------------------18-16-15--------------------------------| 
D|--------------------------------------------18-16--------------------------| 
A|---------------------------------------------------------------------------| 
E|---------------------------------------------------------------------------| 
 
______________ 
**alternative: 
e|---------------------------------------------------------------------------| 
B|--18p16-16p15-15p14-14p12-12p11-11p9-9p7-----------------------------------| 
G|---------------------------------------------------------------------------| 
D|---------------------------------------------------------------------------| 
A|---------------------------------------------------------------------------| 
E|---------------------------------------------------------------------------| 
______________ 
 
 
e|---------------------------------------------------------------------------| 
B|--12b14-12-11-11h12p11-----------------------------------------------------| 
G|-----------------------12-11-9----------12--11-9-11------------------------| 
D|-------------------------------12-11-8--------------11---------------------| 
A|---------------------------------------------------------------------------| 
E|---------------------------------------------------------------------------| 
 
e|-----------------------------11-12-14-16-14-17b19--------------------------| 
B|--14-12-11-12-11~---11-12-14-----------------------------------------------| 
G|---------------------------------------------------------------------------| 
D|---------------------------------------------------------------------------| 
A|---------------------------------------------------------------------------| 
E|---------------------------------------------------------------------------| 
 
(6:36) 
 
e|---------------------------------------------------------------------------| 
B|---------------------------------------------------------------------------| 
G|---------------------------------------------------------------------------| 
D|-----------7-------------7-------------------------------------------------| 
A|------7h9------9------7-----9----------------------------------------------| 
E|---7--------------7-9------------------------------------------------------| 
                   pm..... 
e|---------------------------------------------------------------------------| 
B|---------------------------------------------------------------------------| 
G|---------------------------------------------------------------------------| 
D|---------------------------------------------------------------------------| 
A|---------------------------------------------------------------------------| 
E|---------------------------------------------------------------------------| 
 
 
 
 
e|---------------------------------------------------------------------------| 
B|---------------------------------------------------------------------------| 
G|---------------------------------------------------------------------------| 
D|---------------------------------------------------------------------------| 
A|---------------------------------------------------------------------------| 
E|---------------------------------------------------------------------------| 
 
e|---------------------------------------------------------------------------| 
B|---------------------------------------------------------------------------| 
G|---------------------------------------------------------------------------| 
D|---------------------------------------------------------------------------| 
A|---------------------------------------------------------------------------| 
E|---------------------------------------------------------------------------| 
 
| .  stoccato 
| /  slide up 
|   slide down 
| h  hammer-on 
| p  pull-off 
| ~  vibrato 
| +  harmonic 
| x  Mute note 
| b  Bend note 
| r  Release bend 
| pb Prebend note 
=============================================================================== 

		  

Full key step upFull key step up
Half key step upHalf key step up
Half key step downHalf key step down
Full key step downFull key step down
hide glossary

See also:

tabs Yes - Roundabout tabs Queen - we will rock you (solo) tabs Status Quo - Whatever you want tabs Eric Clapton - Tears In Heaven (ver. 3) tabs The Beatles - Blackbird tabs Billy Idol - White Wedding
e-chords

Other versions:

tabs John Petrucci - Wishful Thinking
auto scroll beats size up size down change color hide chords drawings
tab show chords e-chords YouTube Clip e-chords hide all tabs e-chords go to top tab

share